Sound will begin in 5 seconds

The Woods

Chords
01234567891011121314151617181920212223
E
B
G
D
A
E
B
0 1 2 3 4 5 6 7 8 9 10 11 12 13 14 15 16 17 18 19 20 21 22 23
Song Science #1: How Pros Use 6 Chords to Write Hit Songs
(/) Slide Up  (\) Slide Down  (h) Hammer On  (p) Pull Off  (b) Bend (r) Release (v) Vibrato

Stave 1:

E|--------------------------------------------------------------------------------------------------------
B|--------------------------------------------------------------------------------------------------------
G|--------------------------------------------------------------------------------------------------------
D|--------------------------------------------------------------------------------------0-----------------
A|------------14v------------15v------------12h15--12------------14v------------15v--------8--10--12------
D|--0--12h15-------0--15h17-------0--12h15-------------0--12h15-------0--15h17-------0----------------10--

Stave 2:

E|--------------------------------------------------------------------
B|--------------------------------------------------------------------
G|--------------------------------------------------------------------
D|--------------------------------------0---0--0---0--0--0--0--0--0---
A|------------14v------------15v------------8--10--8--7--------8--10--
D|--0--12h15-------0--15h17-------17\0--10---------------8--7---------

Stave 3:

E|-----------------------
B|-----------------------
G|-----------------------
D|-----------------------
A|--0--8--5--7--8--3--5--
D|--0--7--7--7--8--2--3--

Stave 4:

E|-------------------------------------------------
B|-------------------------------------------------
G|-------------------------------------------------
D|---------------------------------------------12--
A|--7--7--8--5--5--3--7--8--5--3--7--8--8--10--12--
D|--5--6--7--8--3--3--3--3--5--5--5--5--7--8---10--

Stave 5:

E|------------------------------------------
B|------------------------------------------
G|------------------------------------------
D|------------------------------------------
A|----------3v----------5v----------3h5--3--
D|--0--3h4------0--3h4------0--3h4----------

Stave 6:

E|-------------------------------------------------------------------------------------------------------
B|--------------------------------------------------------------------------10---------------------------
G|--------------------------------------------------------------------------10---------------------------
D|----------10v----------12v----------10/12\10----------10v----------10/12------12--10--9----------------
A|-----8/9----------8/9----------8/9---------------8/9----------8/9------------------------10--8---------
D|--0------------0------------0-----------------0------------0------------------------------------10/12--

Stave 7:

E|-------------------------------------------------------------------------------------------------------
B|-------------------------------------------------------------------------------------------------------
G|-------------------------------------------------------------------------------------------------------
D|-----------------------------------------10/12\10------------------------------------------------------
A|------------11v------------12\7-----8/9----------------------11v------------12\10-----5h7--5-----------
D|--0--10h12-------0--10h12--------0-----------------0--10h12-------0--10h12---------7----------7--6--3--

Stave 8:

E|----------------
B|----------------
G|----------------
D|----------------
A|--2h3--2--------
D|----------3--1--

http://www.guitartabcreator.com
Guitar Tab Creator is intended to store guitar tab created through the tool. It currently does not support in-line text editing. Any text you place in here will be lost. If you need to comment on your tab, please use the "Tab Notes" section located below.