Sound will begin in 5 seconds

Torche The Witch

Chords
01234567891011121314151617181920212223
E
B
G
D
A
E
B
0 1 2 3 4 5 6 7 8 9 10 11 12 13 14 15 16 17 18 19 20 21 22 23
Song Science #1: How Pros Use 6 Chords to Write Hit Songs
(/) Slide Up  (\) Slide Down  (h) Hammer On  (p) Pull Off  (b) Bend (r) Release (v) Vibrato

Stave 1:

E|--------------------------------------------------------------------------------------------
B|--------------------------------------------------------------------------------------------
G|--------------------------------------------------------------------------------------------
D|---------------3h5--5--3--------5-----5-----------------------------------------------------
A|--0--0--0/3h5-------------0--0--3--6--2--5--3--3--3-----------3--3-----3--3--7--6--0--5--3--
D|--0--0--0-----------------0--0-----6-----5--3--3--3--5--6--7--------6--3--3--7--6--0--5--3--

Stave 2:

E|--------------------------------------------------
B|--------------------------------------------------
G|--------------------------------------------------
D|--------------------------5--5--5-----------------
A|--0--0--0--7--6--0--3--5--3--3--3--7--6--0--5--3--
D|--0--0--0--7--6--0--3--5-----------7--6--0--5--3--

Stave 3:

E|-------------------------
B|--9---10--6--5--5--8-----
G|--10--7---7--5--5--5--5--
D|--0---0---0--0--5--6--7--
A|----------------------8--
D|-------------------------

Stave 4:

E|-------------------------------
B|-------------------------------
G|-------------------------------
D|--7--3--5--7-----7b8--7--------
A|--3--5--7--8--5----------5--3--
D|--3-----------5----------5--3--

Stave 5:

E|-----0--
B|--------
G|--2-----
D|--3-----
A|--3-----
D|--3-----

Stave 6:

E|--------------------------------------
B|--------------------------------------
G|--------2-----1-----------1-----0-----
D|--0--3-----3-----3--0--3-----3-----2--
A|--------------------------------------
D|--------------------------------------

Stave 7:

E|-------------------------------------------------------------------------------------------------
B|-------------------------------------------------------------------------------------------------
G|--------------------------------------------------------------------9----------------------------
D|-----------------------------------------------------------3--6--7--10--0--7--10--7--9--6--0--7--
A|--5--3--5--7--8--12----------------------------------------5--7--8-------------------------------
D|--0--2--3--5--6--10--0--7--10--7--9--6--0--7--10--7--3--2----------------------------------------

Stave 8:

E|--------------------------------------
B|--------------------------------------
G|--------------------------------------
D|--------------------------------------
A|--------------------------------------
D|--0--3--7--3--6--3--0--3--6--3--5--2--

Stave 9:

E|------------------------------------------------------
B|------12--10--13--------------------------------------
G|--12--9---9---9---12----------------------------------
D|--10--9---9---9---10--3h5--3--------------------------
A|--12--------------12----------5--3--0--3--5--7--8--7--
D|------------------------------------------------------

http://www.guitartabcreator.com
Guitar Tab Creator is intended to store guitar tab created through the tool. It currently does not support in-line text editing. Any text you place in here will be lost. If you need to comment on your tab, please use the "Tab Notes" section located below.