Sound will begin in 5 seconds

Stoned

Chords
01234567891011121314151617181920212223
E
B
G
D
A
E
B
0 1 2 3 4 5 6 7 8 9 10 11 12 13 14 15 16 17 18 19 20 21 22 23
Song Science #1: How Pros Use 6 Chords to Write Hit Songs
(/) Slide Up  (\) Slide Down  (h) Hammer On  (p) Pull Off  (b) Bend (r) Release (v) Vibrato

Stave 1:

E|----------------------------------------------------------------
B|----------------------------------------------------------------
G|----------------------------------------------------------------
D|-------------------------10-----10---------------10--7--10------
A|-------------------------11-----12---------------8---5--8---10--
D|--0--10h12--0--0--10--0------0------0--10h12--9-------------10--

Stave 2:

E|-----------------------------------
B|-----------------------------------
G|-----------------------------------
D|--9--7--5--7--8--10--9--10--10-----
A|--5--3--3--6--6------5--8---10-----
D|--5--3---------------5--8---10--1--

Stave 3:

E|------------------------------------------------------------10--------10--12--
B|--------------------10--9b10b9--------------------10/13--9--7---9h10--10--13--
G|----------------10----------------------------10------------------------------
D|--0--10--12--9------------------0--10--12--9----------------------------------
A|------------------------------------------------------------------------------
D|------------------------------------------------------------------------------

Stave 4:

E|----------------------------------------------
B|----------------------------------------------
G|--7--9--5--7--4--5--10--12--7--9--9---10--12--
D|--9--9--7--7--5--5--12--12--9--9--10--10--13--
A|----------------------------------------------
D|----------------------------------------------

Stave 5:

E|------------------------------------------------------------------------------------------
B|------------------------------------------------------------------------------------------
G|------------------------------------------------------------------------------------------
D|-------------------------10-----10----------------------10-----10-------------------------
A|-------------------------11-----12----------------------11-----12-------------------------
D|--0--10h12--0--0--10--0------0------0--10h12--0--10--0------0------0--10h12--0--10--9--0--

http://www.guitartabcreator.com
Guitar Tab Creator is intended to store guitar tab created through the tool. It currently does not support in-line text editing. Any text you place in here will be lost. If you need to comment on your tab, please use the "Tab Notes" section located below.