Sound will begin in 5 seconds

Seasons

Chords
01234567891011121314151617181920212223
E
B
G
D
A
E
B
0 1 2 3 4 5 6 7 8 9 10 11 12 13 14 15 16 17 18 19 20 21 22 23
Song Science #1: How Pros Use 6 Chords to Write Hit Songs
(/) Slide Up  (\) Slide Down  (h) Hammer On  (p) Pull Off  (b) Bend (r) Release (v) Vibrato

Stave 1:

E|-----------------------------------------------------------------------------
B|-----------------------------------------------------------------------------
G|-----------------------------------------------------------------------------
D|-----------------------------------------------------------------------3-----
A|--15-------------12--10--8--7--8--15-------------12--10--5-----3h5-----------
D|------15--12--0--10--9---5--5--5------15--12--0--10--9---3--0-------3-----0--

Stave 2:

E|-------------------------------------------------------------
B|-------------------------------------------------------------
G|-------------------------------------------------------------
D|-------------------------------------3-----------------------
A|--8--5-----5--8--7--8--5-----3h5-----------8--5-----------2--
D|--5--3--0--3--5--5--5--3--0-------3-----0--------7--3--5-----

Stave 3:

E|--------------
B|--------------
G|--------------
D|--3--4-----8--
A|--1--2--3--6--
D|--------3-----

Stave 4:

E|--------------------------------
B|--------------------------------
G|--------------5--2--------------
D|--7--5--3--5--------5--3--5--0--
A|--8--7--5--7--------------------
D|--------------------------------

Stave 5:

E|----------------------
B|--3--3--6-------------
G|--------7--8--10--12--
D|--3--4-----8--8---8---
A|----------------------
D|----------------------

Stave 6:

E|--------------------------------------
B|--------------------------------------
G|--------------------------------------
D|-----------5-----------------5--6--7--
A|--0--3--5--3--0--3--0--3--5--3--4--5--
D|--0--3--5-----0--3--0--3--5-----------

http://www.guitartabcreator.com
Guitar Tab Creator is intended to store guitar tab created through the tool. It currently does not support in-line text editing. Any text you place in here will be lost. If you need to comment on your tab, please use the "Tab Notes" section located below.