Sound will begin in 5 seconds

On Hold

Chords
01234567891011121314151617181920212223
E
B
G
D
A
E
B
0 1 2 3 4 5 6 7 8 9 10 11 12 13 14 15 16 17 18 19 20 21 22 23
Song Science #1: How Pros Use 6 Chords to Write Hit Songs
(/) Slide Up  (\) Slide Down  (h) Hammer On  (p) Pull Off  (b) Bend (r) Release (v) Vibrato

Stave 1:

E|-------------------------------------------------------------------------------------------------------
B|-------------------------------------------------------------------------------------------------------
G|----------------------------------------------------------------------------------------------4--------
D|----------3---------------------3---------------------------7----------5----------7-----5--------5--4--
A|---------------------3----------------3\2-----------0--0h3-----0--0h3-----0--0h3-----0-----0-----------
D|--0--0h3-----0--0h3-----0--0h3-----0-------5--3--5-----------------------------------------------------

Stave 2:

E|--0--0---0--0---0---0--0--
B|--0--0---0--0---0---0--0--
G|--1--9---8--14--13--1--2--
D|--2--10--9--15--14--2--3--
A|--2--10--9--15--14--2-----
D|--2--10--9--15--14--2-----

Stave 3:

E|--0--0---0--0---0---0--0--0--0--
B|--0--0---0--0---0---0--0--0--0--
G|--1--9---8--14--13--1--4--1--2--
D|--2--10--9--15--14--2--5--2--3--
A|--2--10--9--15--14--2--5--2-----
D|--2--10--9--15--14--2--5--2-----

Stave 4:

E|--------------------------------------------------------------
B|--------------------------------------------------------------
G|--------------------------------------------------------------
D|--------------------9--7-----------------------4--5--4--------
A|--2--0--2--0--2--0--7--5--9--7--5--2--0--2--0--2--3--2--3--5--
D|--2--0--2--0--2--0--------9--7--5--2--0--2--0-----------3--5--

Stave 5:

E|----------
B|--12--10--
G|--9---9---
D|--9---10--
A|----------
D|----------

http://www.guitartabcreator.com
Guitar Tab Creator is intended to store guitar tab created through the tool. It currently does not support in-line text editing. Any text you place in here will be lost. If you need to comment on your tab, please use the "Tab Notes" section located below.