Sound will begin in 5 seconds

FX Rock

Chords
01234567891011121314151617181920212223
E
B
G
D
A
E
B
0 1 2 3 4 5 6 7 8 9 10 11 12 13 14 15 16 17 18 19 20 21 22 23
Song Science #1: How Pros Use 6 Chords to Write Hit Songs
(/) Slide Up  (\) Slide Down  (h) Hammer On  (p) Pull Off  (b) Bend (r) Release (v) Vibrato

Stave 1:

E|---------------------
B|---------------------
G|---------------------
D|--12--12--12---------
A|--12--9---8----------
D|--------------10--9--

Stave 2:

E|---------------
B|---------------
G|---------------
D|--8---3--2--2--
A|--10--7--3--3--
D|--8---3--0--2--

Stave 3:

E|--------------
B|--------------
G|--5--7--5--7--
D|--7--7--7--7--
A|--8--7--5--7--
D|--------------

Stave 4:

E|----------------------------------------
B|----------------------------------------
G|----------------------------------------
D|----------------------------------------
A|----------------17--13--12--15--13--12--
D|--0--12--0--12--------------------------

Stave 5:

E|----------------------------------------------------------------------------------------------
B|----------------------------------------------------------------------------------------------
G|----------------------------------------------------------------------------------------------
D|----------------12p0-------------------------13\12--------------------------------------------
A|----------13p0----------------------0h13h15------------10h13----------------------------------
D|--0h12p0--------------0--0h12p0--0------------------0---------13\12--0--10p0--15p0--0h10--13--

Stave 6:

E|--------------------------------------------------
B|--------------------------------------------------
G|--------------------------------------------------
D|--------------------------------------------------
A|-----------12h15-----------10\8-------------------
D|--0h12h15---------0h10h12--------12p9p0--7/10--9--

http://www.guitartabcreator.com
Guitar Tab Creator is intended to store guitar tab created through the tool. It currently does not support in-line text editing. Any text you place in here will be lost. If you need to comment on your tab, please use the "Tab Notes" section located below.