Sound will begin in 5 seconds

12 bar blues

Chords
01234567891011121314151617181920212223
E
B
G
D
A
E
B
0 1 2 3 4 5 6 7 8 9 10 11 12 13 14 15 16 17 18 19 20 21 22 23
Song Science #1: How Pros Use 6 Chords to Write Hit Songs
(/) Slide Up  (\) Slide Down  (h) Hammer On  (p) Pull Off  (b) Bend (r) Release (v) Vibrato

Stave 1:

E|-----5--------5--------5--------
B|--------------------------------
G|--6-----6--7-----7--8-----8--9--
D|--------------------------------
A|--------------------------------
E|--------------------------------

Stave 2:

E|--------------------
B|--7--7--7--7--7--6--
G|--6--6--6--6--6--5--
D|--------------------
A|--------------------
E|--------------------

Stave 3:

E|-------------------
B|-------------------
G|-----5--7p5-----5h/
D|--7----------7-----
A|-------------------
E|-------------------

Stave 4:

E|------5-----7-----9--
B|---------------------
G|--/6-----7-----9-----
D|---------------------
A|---------------------
E|---------------------

Stave 5:

E|-------------------8h10--------8h10--------------8--10-----8------
B|-----8--10--8--10--------------------------8h10---------------10--
G|--9---------------------------------------------------------------
D|------------------------------------------------------------------
A|------------------------------------------------------------------
E|------------------------------------------------------------------

Stave 6:

E|--12b13--12--10---------10---------10-------------------------------------------------
B|-----------------13b14------13b14------13b14--10------------10--12p10---------12--12--
G|--------------------------------------------------------11-------------11-------------
D|--------------------------------------------------------------------------------------
A|--------------------------------------------------------------------------------------
E|--------------------------------------------------------------------------------------

Stave 7:

E|--
B|--
G|--
D|--
A|--
E|--

http://www.guitartabcreator.com
Guitar Tab Creator is intended to store guitar tab created through the tool. It currently does not support in-line text editing. Any text you place in here will be lost. If you need to comment on your tab, please use the "Tab Notes" section located below.