Sound will begin in 5 seconds

I'm Gonna Find Another You (Live in L.A.)

Chords
01234567891011121314151617181920212223
E
B
G
D
A
E
B
0 1 2 3 4 5 6 7 8 9 10 11 12 13 14 15 16 17 18 19 20 21 22 23
Song Science #1: How Pros Use 6 Chords to Write Hit Songs
(/) Slide Up  (\) Slide Down  (h) Hammer On  (p) Pull Off  (b) Bend (r) Release (v) Vibrato

Stave 1:

E|-----------------------------------------------------------|--5--8b10--5----------------|-----------|--
B|--------5--------------------------------------------------|--------------5-------------5--7--x--7--|--
G|-----7-----5----------------------5h6----------------------|-----------------7-----5/6--6--7--x--7--|--
D|--7-----------7--------------5h7-------7--5-----------4-5--|--------------------7--4-5--7--7--x--7--|--
A|-----------------7--6--5---------------------7--6--5--3/4--|----------------------------|-----------|--
E|--------------------------8--------------------------------|----------------------------|-----------|--

Stave 2:

E|-----------------------------------|------------------------------------------------|--------------------
B|-----------------------------------|----------------------10----10-----------9------|--5--9b10--5--------
G|-----------7--6--------------------|-------------------9------9h11--11p9-----9------|--------------7-----
D|-----4--7--------7-----------7-----|----------7--9/11---------------------12p9--11--|-----------------7--
A|--7-----------------7--5--4--------|-------7----------------------------------------|--------------------
E|--------------------------------5--|--7/9-------------------------------------------|--------------------

Stave 3:

E|-------5--5--|--0----------------|------------------------------------------------------|--
B|-------5--5--|-------------------|--8--5------------------------------------------------|--
G|--5/6--6--6--|--------------5/6--|--------8--7--5-----5h6-----------------------5h6-----|--
D|--4-5--7--7--|--------4--7--4-5--|-----------------7-------7--5--------------7--5----4--|--
A|-------x--x--|-----7-------------|-------------------------------7--6--5----------------|--
E|-------5--5--|-------------------|----------------------------------------8-------------|--

Stave 4:

E|-----------------------------|---------10-------------------------------------------------------------
B|-----------------------------|--10h12------13p10------------------------------------------------------
G|-------------10/11--12--11---|--------------------13\12--10------10h11--------------------------------
D|------9--12--9--10------10v--|-------------------------------12---------12--10-------------------12v--
A|--12-------------------------|--------------------------------------------------12--11--10--8/9-------
E|-----------------------------|------------------------------------------------------------------------

Stave 5:

E|--5--|----------12--10h11p10-------------------17--17--|------------------------|--
B|--5--|------10----------------12b14r12--10-------------|--12p14r12--10-----10v--|--
G|--6--|--11----------------------------------9----------|----------------9-------|--
D|--7--|-------------------------------------------------|------------------------|--
A|--x--|-------------------------------------------------|------------------------|--
E|--5--|-------------------------------------------------|------------------------|--

Stave 6:

E|--------------------------------------------|------------------------------|--------------------|-----
B|-----------------5--------------------------|-----------------5------------|----------5--7--8v--|--7--
G|--8--7--5-----7-----5--------------------6--|-----------4--------6--4--6v--|-----6h7------------|--6--
D|-----------7-----------7--5--------------5--|-----4--------6---------------|--7-----------------|--5--
A|-----------------------------7--6--5--------|--0-----5---------------------|--------------------|--0--
E|--------------------------------------8-----|------------------------------|--------------------|--5--

Stave 7:

E|------------------------------------------------------------|----------------|--
B|--5h7--6--5------------------------------------10--12--13v--|--4--7--10--13--|--
G|-------------7--4----------7v--v--v--v--v--11---------------|--2--5--8---11--|--
D|-------------------7--3/4-----------------------------------|--4--7--10--13--|--
A|------------------------------------------------------------|--3--6--9---12--|--
E|------------------------------------------------------------|----------------|--

Stave 8:

E|-----------------5-----------------10--------------------|-----------4--2--|--------9--7------------------
B|------10--12b13--5--10--12b14--10------12b14--10--10-----|--------2--------|-----7--------10--7-----------
G|--11-------------6------------------------------------9--|-----2-----------|--7------------------7--6-----
D|-----------------7---------------------------------------|--4--------------|---------------------------9--
A|-----------------7---------------------------------------|-----------------|------------------------------
E|-----------------5---------------------------------------|-----------------|------------------------------

Stave 9:

E|--------7----------------------------------------------------------------------------------|--
B|-----7-----10p9p7---------------5----------------------------------------------------------|--
G|--7----------------9p7--5h6--7-----6----------4--------------------------------------------|--
D|--------------------------------------7--6h7-----5h6----------6--7p6-----4-----------------|--
A|------------------------------------------------------7--5h7----------7-----5--7--3/4------|--
E|---------------------------------------------------------------------------------------5v--|--

Stave 10:

E|--
B|--
G|--
D|--
A|--
E|--

http://www.guitartabcreator.com
Guitar Tab Creator is intended to store guitar tab created through the tool. It currently does not support in-line text editing. Any text you place in here will be lost. If you need to comment on your tab, please use the "Tab Notes" section located below.