Sound will begin in 5 seconds

Bad Girlfriend - Theory Of A Deadman

Chords
01234567891011121314151617181920212223
E
B
G
D
A
E
B
0 1 2 3 4 5 6 7 8 9 10 11 12 13 14 15 16 17 18 19 20 21 22 23
Song Science #1: How Pros Use 6 Chords to Write Hit Songs
(/) Slide Up  (\) Slide Down  (h) Hammer On  (p) Pull Off  (b) Bend (r) Release (v) Vibrato

Stave 1:

E|-----------------------------------------------------------------------------------------
B|-----------------------------------------------------------------------------------------
G|-----------------------------------------------------------------------------------------
D|-----------------------------------------3--------------------------------------------3--
A|--------5--4--3--0--3--5-----5--4--3--0-----------5--4--3--0--3--5--------5--4--3--0-----
E|--0--0--------------------0-----------------0--0--------------------0--0-----------------

Stave 2:

E|---------------------------------------------------------------------------------
B|---------------------------------------------------------------------------------
G|---------------------------------------------------------------------------------
D|--15--12--10--12--15--12--10--12--15--15--12--10--12-----------------------------
A|------------------------------------------------------12--11--12--11--12--11--8--
E|---------------------------------------------------------------------------------

Stave 3:

E|-------------------------------------------------------------------------------
B|-------------------------------------------------------------------------------
G|---------------------------------------------------14--13--14--13--14--13--14--
D|--15--12--9--12--15--12--9--12--15--15--12--9--12------------------------------
A|-------------------------------------------------------------------------------
E|-------------------------------------------------------------------------------

Stave 4:

E|--------------------------------------------------------------------------------------------------
B|--------------------------------------------------------------------------------------------------
G|--7--7--7--7--7--7--7--7--5--5--5--5--5--5--5--5--4--4--4--4--4--4--4--4--5--5--5--5--5--5--5--5--
D|--7--7--7--7--7--7--7--7--5--5--5--5--5--5--5--5--5--5--5--5--5--5--5--5--5--5--5--5--5--5--5--5--
A|--------------------------------------------------------------------------------------------------
E|--------------------------------------------------------------------------------------------------

Stave 5:

E|--------------------------------------------------------------------------------------------------
B|--------------------------------------------------------------------------------------------------
G|--------------------------5--5--5--5--5--5--5--5--------------------------5--5--5--5--5--5--5--5--
D|--0--0--0--0--0--0--0--0--5--5--5--5--5--5--5--5--5--5--5--5--5--5--5--5--5--5--5--5--5--5--5--5--
A|--0--0--0--0--0--0--0--0--3--3--3--3--3--3--3--3--5--5--5--5--5--5--5--5--3--3--3--3--3--3--3--3--
E|--0--0--0--0--0--0--0--0--------------------------5--5--5--5--5--5--5--5--------------------------

Stave 6:

E|-----------------------------------------------------------------------------------------------
B|-----------------------------------------------------------------------------------------------
G|--3--3--3--3--3--3--3--3--5--5--5--5--5--5--5--5-----------------------------------------------
D|--3--3--3--3--3--3--3--3--5--5--5--5--5--5--5--5-----------------------------------------------
A|--1--1--1--1--1--1--1--1--3--3--3--3--3--3--3--3-----------------------------------------------
E|--------------------------------------------------0-----0--0-----0--3-----0-----0--0-----0--3--

Stave 7:

E|--------------------------------------------------------------------------------------------------
B|--------------------------------------------------------------------------------------------------
G|--------------------------------------------------------------------------------------------------
D|--------------------------------------------------------------------------------------------------
A|--------5--4--3--0--3--5--------5--4--3--0--3--5--------5--4--3--0--3--5--------5--4--3--0--3--5--
E|--0--0--------------------0--0--------------------0--0--------------------0--0--------------------

Stave 8:

E|----------------------------------------------------------------------------------------------------------------
B|----------------------------------------------------------------------------------------------------------------
G|--7--7--7--7--7--7--7--7--10--10--10--10--10--10--10--10--12--12--12--12--12--12--12--12--17--17--17--17--5--7--
D|--7--7--7--7--7--7--7--7--10--10--10--10--10--10--10--10--12--12--12--12--12--12--12--12--17--17--17--17--5--7--
A|----------------------------------------------------------------------------------------------------------3--5--
E|----------------------------------------------------------------------------------------------------------------

http://www.guitartabcreator.com
Guitar Tab Creator is intended to store guitar tab created through the tool. It currently does not support in-line text editing. Any text you place in here will be lost. If you need to comment on your tab, please use the "Tab Notes" section located below.