Sound will begin in 5 seconds

I Stopped By (Buzz Guitar)

Chords
01234567891011121314151617181920212223
E
B
G
D
A
E
B
0 1 2 3 4 5 6 7 8 9 10 11 12 13 14 15 16 17 18 19 20 21 22 23
Song Science #1: How Pros Use 6 Chords to Write Hit Songs
(/) Slide Up  (\) Slide Down  (h) Hammer On  (p) Pull Off  (b) Bend (r) Release (v) Vibrato

Stave 1:

E|---------------------------------------------------------------------------
B|-12-12-12-12-11-11-11-11\9-9-9-9\7-7-7-7/9-9-9-9\7-7-7-7\4-4-4-4/7-7-7-7/4-
G|---------------------------------------------------------------------------
D|---------------------------------------------------------------------------
A|---------------------------------------------------------------------------
E|---------------------------------------------------------------------------

Stave 2:

E|----------------------------------------------------------------------------
B|-12-12-12-12-11-11-11-11\9-9-9-9\7-7-7-7/9-9-9-9\7-7-7-7\4-4-4-4/7-7-7-7/12-
G|----------------------------------------------------------------------------
D|----------------------------------------------------------------------------
A|----------------------------------------------------------------------------
E|----------------------------------------------------------------------------

Stave 3:

E|----------------------
B|----------------------
G|-11-9-4-6-8-9-4-6-8-9-
D|----------------------
A|-9--7-2-4-6-7-2-4-6-7-
E|----------------------

Stave 4:

E|--------------
B|--------------
G|-11-9-8-6-8-9-
D|--------------
A|-9--7-6-4-6-7-
E|--------------

Stave 5:

E|----------------------------------------------------------------------------------------------------
B|-12----12----12----12-------12----12----14----14-------12----12----12----12-------12----12----12----
G|----11----11----11-------11----11----11----11-------11----11----11----11-------11----11----11----11-
D|----------------------------------------------------------------------------------------------------
A|----------------------------------------------------------------------------------------------------
E|----------------------------------------------------------------------------------------------------

Stave 6:

E|---0------0-
B|---0------0-
G|---1------1-
D|-6-2-4----2-
A|-6-2-1----2-
E|-4-0------0-

http://www.guitartabcreator.com
Guitar Tab Creator is intended to store guitar tab created through the tool. It currently does not support in-line text editing. Any text you place in here will be lost. If you need to comment on your tab, please use the "Tab Notes" section located below.