Sound will begin in 5 seconds

Shes out of her mind

Chords
01234567891011121314151617181920212223
E
B
G
D
A
E
B
0 1 2 3 4 5 6 7 8 9 10 11 12 13 14 15 16 17 18 19 20 21 22 23
Song Science #1: How Pros Use 6 Chords to Write Hit Songs
(/) Slide Up  (\) Slide Down  (h) Hammer On  (p) Pull Off  (b) Bend (r) Release (v) Vibrato

Stave 1:

E|-------------------------
B|-----5-----5-----5-----5-
G|-5-5---5-5---5-5---5-5---
D|-------------------------
A|-------------------------
E|-------------------------

Stave 2:

E|-----------------------------------------------------------------
B|-----------------------------------------------------------------
G|-----------------------------------------------------------------
D|-----------------------------------------------------------------
A|-3-3-3-3-3-3-3-3-------------------------------------------------
E|-----------------3-3-3-3-3-3-3-3-5-5-5-5-5-5-5-5-3-3-3-3-3-3-3-3-

Stave 3:

E|-----------
B|-----------
G|-----------
D|-----7-5-3-
A|-----7-5-3-
E|-----5-3-1-

Stave 4:

E|-----------
B|-----------
G|-5---------
D|-5-5-7-3-5-
A|-3-5-7-3-5-
E|---3-5-1-3-

Stave 5:

E|-----------
B|-----------
G|-----------
D|-3-5-7-7-5-
A|-3-5-7-7-5-
E|-1-3-5-5-3-

Stave 6:

E|-------------
B|-------------
G|---5---------
D|---5-5-3-7-5-
A|---3-5-3-7-5-
E|-----3-1-5-3-

Stave 7:

E|---------
B|---------
G|-5-------
D|-5-5-7-5-
A|-3-5-7-5-
E|---3-5-3-

Stave 8:

E|-------
B|-------
G|---0---
D|-7-5-3-
A|-7-5-3-
E|-5-3-1-

Stave 9:

E|-------------------------------
B|-------------------------------
G|-------------------------------
D|-------------------------------
A|----15-13----15-13-------15-13-
E|-12-------12-------13-12-------

Stave 10:

E|-8-8-8---------------------------8-8-8---------------------------8-8-8---------------------------8-8-8-
B|-------8-8-8-6-6-6-5-5-5-----5-5-------8-8-8-6-6-6-5-5-5---------------8-8-8-6-6-6-5-5-5-----5-5-------
G|-------------------------7-7-----------------------------7-7-5-5-------------------------7-7-----------
D|-------------------------------------------------------------------------------------------------------
A|-------------------------------------------------------------------------------------------------------
E|-------------------------------------------------------------------------------------------------------

http://www.guitartabcreator.com
Guitar Tab Creator is intended to store guitar tab created through the tool. It currently does not support in-line text editing. Any text you place in here will be lost. If you need to comment on your tab, please use the "Tab Notes" section located below.