Sound will begin in 5 seconds

Instagram Merrill C-18

Chords
01234567891011121314151617181920212223
E
B
G
D
A
E
B
0 1 2 3 4 5 6 7 8 9 10 11 12 13 14 15 16 17 18 19 20 21 22 23
Song Science #1: How Pros Use 6 Chords to Write Hit Songs
(/) Slide Up  (\) Slide Down  (h) Hammer On  (p) Pull Off  (b) Bend (r) Release (v) Vibrato

Stave 1:

E|----------------------------------------------------------------------------------------------
B|----------------------------------------------------------------------------------------------
G|----------------------------------------------------------------------------------------------
D|--12--12--x--x--12--11--9--9--9--x--x--9--11--11--12--12---------9--12--12--12---------9--12--
A|--9---9---x--x--9---9---9--9--9--x--x--9--11--11--9---9---9--12---------9---9---9--12---------
D|--0---0---x--x--0---0---0--9--9--x--x--9--11--11--0---0-----------------0---0-----------------

Stave 2:

E|-----------------------------------------------------------------------------------
B|-----------------------------------------------------------------------------------
G|--------------------------------------------------------------2--------2-----------
D|--12--11--9--9--9--x--x--9--9--x--x--9--11--11--12--12--9--7--4--2--4-----4--2--0--
A|--9---9---9--9--9--x--x--9--9--x--x--9--11--11--9---9---5--5--0--------------------
D|--0---0---0--9--9--x--x--9--9--x--x--9--11--11--9---9---5--5--0--------------------

Stave 3:

E|--------------------------------------------------------------------------
B|--------------------------------------------------------------------------
G|----------------2--------2----------------------------2----------------2--
D|--12--12--9--7--4--2--4-----4--2--0--12--12--8--9--7--4--12--12--9--7--4--
A|--9---9---5--5--0--------------------9---9---4--5--5--0--9---9---5--5--0--
D|--9---9---5--5--0--------------------9---9---4--5--5--0--9---9---5--5--0--

Stave 4:

E|--------------------------------------------------------------------------------------
B|--------------------------------------------------------------------------------------
G|--2--2--x--x-----------2--2--------2--4--2--2--------2--4--2--2--------2--------------
D|--4--4--x--x--4--7--7--4--4--2--4--------4--4--2--4--------4--4--2--4-----4--4--7--7--
A|--0--0--x--x--2--5--5--0--0--------------0--0--------------0--0--------------2--5--5--
D|--0--0--x--x--2--5--5--0--0--------------0--0--------------0--0--------------2--5--5--

Stave 5:

E|--------------------
B|--------------------
G|--7--7--7--7--6--7--
D|--7--7--7--7--0--7--
A|--5--5--7--7--x--9--
D|--5--5--7--7--8--9--

http://www.guitartabcreator.com
Guitar Tab Creator is intended to store guitar tab created through the tool. It currently does not support in-line text editing. Any text you place in here will be lost. If you need to comment on your tab, please use the "Tab Notes" section located below.