Stand By Me Solo

Chords

01234567891011121314151617181920212223
E
B
G
D
A
E
B
0 1 2 3 4 5 6 7 8 9 10 11 12 13 14 15 16 17 18 19 20 21 22 23
(/) Slide Up  (\) Slide Down  (h) Hammer On  (p) Pull Off  (b) Bend (r) Release (v) Vibrato

2:08

E|--15/17---------------------------------------------------------------15/17-------
B|---------19\17--14v-----12h14--12----------12----------12\10--12v------------14v--
G|-----------------------------------14v---------14v--------------------------------
D|----------------------------------------------------------------------------------
A|----------------------------------------------------------------------------------
E|----------------------------------------------------------------------------------

2:26

E|--15/17--17/19--17v--19--21v--p19--17v------17----------------19-----------------17--17--
B|----------------------------------------15------17v--h19--17------19--19/21--21----------
G|-----------------------------------------------------------------------------------------
D|-----------------------------------------------------------------------------------------
A|-----------------------------------------------------------------------------------------
E|-----------------------------------------------------------------------------------------

							http://www.guitartabcreator.com
Instruments
{"title":"Stand By Me Solo","strings":[[[15,"/",17,".",".",".",".",".","_",".",".",".",".",".",".","_",".",".",".","_",".",".",".",".",".","_",15,"/",17,".","."],[".",".",".",19,"\\",17,14,"v","_",12,"h",14,12,".",".","_",12,".",".","_",12,"\\",10,12,"v","_",".",".",".",14,"v"],[".",".",".",".",".",".",".",".","_",".",".",".",".",14,"v","_",".",14,"v","_",".",".",".",".",".","_",".",".",".",".","."],[".",".",".",".",".",".",".",".","_",".",".",".",".",".",".","_",".",".",".","_",".",".",".",".",".","_",".",".",".",".","."],[".",".",".",".",".",".",".",".","_",".",".",".",".",".",".","_",".",".",".","_",".",".",".",".",".","_",".",".",".",".","."],[".",".",".",".",".",".",".",".","_",".",".",".",".",".",".","_",".",".",".","_",".",".",".",".",".","_",".",".",".",".","."]],[[15,"/",17,17,"/",19,17,"v",19,21,"v","p",19,17,"v",".",17,".",".",".",".",".",19,".",".",".",".",".",17,17],[".",".",".",".",".",".",".",".",".",".",".",".",".",".",".",15,".",17,"v","h",19,17,".",19,19,"/",21,21,".","."],[".",".",".",".",".",".",".",".",".",".",".",".",".",".",".",".",".",".",".",".",".",".",".",".",".",".",".",".",".","."],[".",".",".",".",".",".",".",".",".",".",".",".",".",".",".",".",".",".",".",".",".",".",".",".",".",".",".",".",".","."],[".",".",".",".",".",".",".",".",".",".",".",".",".",".",".",".",".",".",".",".",".",".",".",".",".",".",".",".",".","."],[".",".",".",".",".",".",".",".",".",".",".",".",".",".",".",".",".",".",".",".",".",".",".",".",".",".",".",".",".","."]]],"numberofstrings":6,"notes":["E","B","G","D","A","E","B"],"capo":0,"stringnotes":["E4","B3","G3","D3","A2","E2"],"comments":["2:08","2:26"],"timing":[["W",null,"W","W",null,"W","W","W",null,"W","W","W","W","W","W","W","W","W","W","W","W","W","W","W",null,null,"W",null,"W","W"],["W",null,"W","W",null,"W","W",null,"W","W","W","W","W","W",null,"W","W","W","W","W","W","W","W","W","W","W","W","W","W","W","W","W","W"]],"timingvisible":false,"tabcounter":30,"stave":1,"totalstaves":2,"instrument":"6guitar","selectedtuning":"6_standard","version":"13"}

Member for

1 year 1 month
Submitted by mroemer on Sat, 2020-03-21 14:37