Hey Joe

Chords

01234567891011121314151617181920212223
E
B
G
D
A
E
B
0 1 2 3 4 5 6 7 8 9 10 11 12 13 14 15 16 17 18 19 20 21 22 23
(/) Slide Up  (\) Slide Down  (h) Hammer On  (p) Pull Off  (b) Bend (r) Release (v) Vibrato

Intro

E|--0--------------------------------------------------------
B|-----3-----------------------------------------------------
G|--------3\2--0---------------------------------------------
D|----------------2----------------------------0-------0-----
A|-------------------------5--5--4--2-----0h2-----0h2-----2--
E|-------------------0-----5--5--4--2------------------------

Progression- C, G, D, A, E(4x)

E|--0-----0-----0--0--0--0--|--3-----3-----3--3--3--3--|--2-----2-----2--2--2--2--
B|--1-----1-----1--1--1--1--|--0-----0-----0--0--0--0--|--3-----3-----3--3--3--3--
G|--2-----2-----2--2--2--2--|--0-----0-----0--0--0--0--|--2-----2-----2--2--2--2--
D|--3-----3-----3--3--3--3--|--0-----0-----0--0--0--0--|--0-----0-----0--0--0--0--
A|--0-----0-----0--0--0--0--|--2-----2-----2--2--2--2--|--------------------------
E|--------------------------|--3-----3-----3--3--3--3--|--------------------------



E|--0-----0-----0--0--0--0--|--0-----0-----0--0--0--0--
B|--2-----2-----2--2--2--2--|--0-----0-----0--0--0--0--
G|--2-----2-----2--2--2--2--|--1-----1-----1--1--1--1--
D|--2-----2-----2--2--2--2--|--2-----2-----2--2--2--2--
A|--0-----0-----0--0--0--0--|--2-----2-----2--2--2--2--
E|--------------------------|--0-----0-----0--0--0--0--

Walking Bass

E|--------------------------------------------------------0--0--0--0--
B|--------------------------------------------------------0--0--0--0--
G|--------------------------------------------------------1--1--1--1--
D|--------------------------------------------------------2--2--2--2--
A|--3--------------2--3--4--5--------------4--5--6--7-----2--2--2--2--
E|-----0--1--2--3--------------2--3--4--5-----------0-----0--0--0--0--

End- E(3x)

E|--0-----0-----0--0--0--0--|-----
B|--0-----0-----0--0--0--0--|-----
G|--1-----1-----1--1--1--1--|-----
D|--2-----2-----2--2--2--2--|-----
A|--2-----2-----2--2--2--2--|--7--
E|--0-----0-----0--0--0--0--|--0--

							http://www.guitartabcreator.com
Instruments
{"title":"Hey Joe","strings":[[[0,".",".",".",".",".",".",".","_",".",".",".",".","_",".",".",".",".",".",".",".",".","."],[".",3,".",".",".",".",".",".","_",".",".",".",".","_",".",".",".",".",".",".",".",".","."],[".",".",3,"\\",2,0,".",".","_",".",".",".",".","_",".",".",".",".",".",".",".",".","."],[".",".",".",".",".",".",2,".","_",".",".",".",".","_",".",".",".",0,".",".",".",0,"."],[".",".",".",".",".",".",".",".","_",5,5,4,2,"_",0,"h",2,".",0,"h",2,".",2],[".",".",".",".",".",".",".",0,"_",5,5,4,2,"_",".",".",".",".",".",".",".",".","."]],[[0,"_",0,"_",0,0,0,0,"|",3,"_",3,"_",3,3,3,3,"|",2,"_",2,"_",2,2,2,2],[1,"_",1,"_",1,1,1,1,"|",0,"_",0,"_",0,0,0,0,"|",3,"_",3,"_",3,3,3,3],[2,"_",2,"_",2,2,2,2,"|",0,"_",0,"_",0,0,0,0,"|",2,"_",2,"_",2,2,2,2],[3,"_",3,"_",3,3,3,3,"|",0,"_",0,"_",0,0,0,0,"|",0,"_",0,"_",0,0,0,0],[0,"_",0,"_",0,0,0,0,"|",2,"_",2,"_",2,2,2,2,"|",".","_",".","_",".",".",".","."],[".","_",".","_",".",".",".",".","|",3,"_",3,"_",3,3,3,3,"|",".","_",".","_",".",".",".","."]],[[0,"_",0,"_",0,0,0,0,"|",0,"_",0,"_",0,0,0,0],[2,"_",2,"_",2,2,2,2,"|",0,"_",0,"_",0,0,0,0],[2,"_",2,"_",2,2,2,2,"|",1,"_",1,"_",1,1,1,1],[2,"_",2,"_",2,2,2,2,"|",2,"_",2,"_",2,2,2,2],[0,"_",0,"_",0,0,0,0,"|",2,"_",2,"_",2,2,2,2],[".","_",".","_",".",".",".",".","|",0,"_",0,"_",0,0,0,0]],[[".",".",".",".",".",".",".",".",".",".",".",".",".",".",".",".",".","_",0,0,0,0],[".",".",".",".",".",".",".",".",".",".",".",".",".",".",".",".",".","_",0,0,0,0],[".",".",".",".",".",".",".",".",".",".",".",".",".",".",".",".",".","_",1,1,1,1],[".",".",".",".",".",".",".",".",".",".",".",".",".",".",".",".",".","_",2,2,2,2],[3,".",".",".",".",2,3,4,5,".",".",".",".",4,5,6,7,"_",2,2,2,2],[".",0,1,2,3,".",".",".",".",2,3,4,5,".",".",".",0,"_",0,0,0,0]],[[0,"_",0,"_",0,0,0,0,"|","."],[0,"_",0,"_",0,0,0,0,"|","."],[1,"_",1,"_",1,1,1,1,"|","."],[2,"_",2,"_",2,2,2,2,"|","."],[2,"_",2,"_",2,2,2,2,"|",7],[0,"_",0,"_",0,0,0,0,"|",0]]],"numberofstrings":6,"notes":["E","B","G","D","A","E","B"],"capo":0,"stringnotes":["E4","B3","G3","D3","A2","E2"],"comments":["Intro","Progression- C, G, D, A, E(4x)","","Walking Bass","End- E(3x)"],"timing":[["W","W","W",null,"W","W","W","W",null,"W","W","W","W",null,"W",null,"W","W","W",null,"W","W","W"],["W",null,"W",null,"W","W","W","W",null,"W","W","W",null,"W","W","W","W",null,"W",null,"W",null,"W","W","W","W"],["W",null,"W",null,"W","W","W","W",null,"W",null,"W",null,"W","W","W","W","W","W","W","W","W"],["W","W","W","W","W","W","W","W","W","W","W","W","W","W","W","W","W",null,"W","W","W","W"],["W",null,"W",null,"W","W","W","W",null,"W","W"]],"timingvisible":false,"tabcounter":10,"stave":4,"totalstaves":5,"instrument":"6guitar","selectedtuning":"6_standard","version":"13"}

Member for

1 year 1 month
Submitted by mroemer on Sun, 2020-03-29 15:03