Blues Lead 1

Chords

01234567891011121314151617181920212223
E
B
G
D
A
E
B
0 1 2 3 4 5 6 7 8 9 10 11 12 13 14 15 16 17 18 19 20 21 22 23
(/) Slide Up  (\) Slide Down  (h) Hammer On  (p) Pull Off  (b) Bend (r) Release (v) Vibrato

Stave 1:

E|--------------10----------------------------------------------------------------------------
B|--10v--10h13------10v-----10h13--10---------------------------------------------------------
G|-------------------------------------9v-----9h12--9-------------------------7--8--9--7------
D|-----------------------------------------------------7v-----7--8--9--7--9v--------------7v--
A|--------------------------------------------------------------------------------------------
E|--------------------------------------------------------------------------------------------

Stave 2:

E|---------------------------------------------10-------
B|----------------------------------10--10h13------10v--
G|-----------7--9v-----7--8--9--12----------------------
D|--7--8--9---------------------------------------------
A|------------------------------------------------------
E|------------------------------------------------------

							http://www.guitartabcreator.com
Instruments
{"title":"Blues Lead 1","strings":[[[".",".",".",".",".",10,".",".","_",".",".",".",".",".",".","_",".",".",".",".",".",".","_",".",".",".",".",".",".",".",".",".",".",".","."],[10,"v",10,"h",13,".",10,"v","_",10,"h",13,10,".",".","_",".",".",".",".",".",".","_",".",".",".",".",".",".",".",".",".",".",".","."],[".",".",".",".",".",".",".",".","_",".",".",".",".",9,"v","_",9,"h",12,9,".",".","_",".",".",".",".",".",".",7,8,9,7,".","."],[".",".",".",".",".",".",".",".","_",".",".",".",".",".",".","_",".",".",".",".",7,"v","_",7,8,9,7,9,"v",".",".",".",".",7,"v"],[".",".",".",".",".",".",".",".","_",".",".",".",".",".",".","_",".",".",".",".",".",".","_",".",".",".",".",".",".",".",".",".",".",".","."],[".",".",".",".",".",".",".",".","_",".",".",".",".",".",".","_",".",".",".",".",".",".","_",".",".",".",".",".",".",".",".",".",".",".","."]],[[".",".",".",".",".",".","_",".",".",".",".",".",".",".",".",10,".","."],[".",".",".",".",".",".","_",".",".",".",".",10,10,"h",13,".",10,"v"],[".",".",".",7,9,"v","_",7,8,9,12,".",".",".",".",".",".","."],[7,8,9,".",".",".","_",".",".",".",".",".",".",".",".",".",".","."],[".",".",".",".",".",".","_",".",".",".",".",".",".",".",".",".",".","."],[".",".",".",".",".",".","_",".",".",".",".",".",".",".",".",".",".","."]]],"numberofstrings":6,"notes":["E","B","G","D","A","E","B"],"capo":0,"stringnotes":["E4","B3","G3","D3","A2","E2"],"comments":["Stave 1:","Stave 2:","Stave 3:"],"timing":[["W",null,"W",null,"W","W","W",null,null,"W",null,"W","W","W",null,null,"W",null,"W","W","W",null,null,"W","W","W","W","W",null,"W","W","W","W","W"],["W","W","W","W","W",null,"W","W","W","W","W","W","W",null,"W","W","W"],["W","W","W","W","W","W","W","W","W","W"]],"timingvisible":false,"tabcounter":18,"stave":1,"totalstaves":2,"instrument":"6guitar","selectedtuning":"6_standard","version":"13"}

Member for

1 year 1 month
Submitted by mroemer on Wed, 2020-03-25 10:32