Sulfur

01234567891011121314151617181920212223
E
B
G
D
A
E
B
0 1 2 3 4 5 6 7 8 9 10 11 12 13 14 15 16 17 18 19 20 21 22 23
(/) Slide Up  (\) Slide Down  (h) Hammer On  (p) Pull Off  (b) Bend (r) Release (v) Vibrato

intro

E|--------------------------------------------------|--------------------------------------------------|--
B|--------------------------------------------------|--------------------------------------------------|--
G|-----------------------------------3-----------0--|--------------------------------------------------|--
D|--------0-----0-----0-----0--------------3--------|--------0-----0-----0-----0--------0-----1-----3--|--
A|--3--3-----1-----3-----1-----1--1-----1-----1-----|--3--3-----1-----3-----1-----1--1-----1-----1-----|--
E|--------------------------------------------------|--------------------------------------------------|--

verse break

E|--3--------------3--3--3--------------|--
B|--4--------------4--4--4--------------|--
G|--5--------------5--5--5--------------|--
D|--5--------------5--5--5--------------|--
A|--3--------------3--3--3--------------|--
E|--------------------------------------|--

ignite!

E|--15-----15-----15-----15-----15-----15-----15-----15--------15--15--15-----|--
B|--16-----16-----16-----16-----16-----16-----16-----16--------16--16--16-----|--
G|--17-----17-----17-----17-----17-----17-----17-----17--------17--17--17-----|--
D|--17-----17-----17-----17-----17-----17-----17-----17--------17--17--17-----|--
A|--15-----15-----15-----15-----15-----15-----15-----15--------15--15--15-----|--
E|----------------------------------------------------------------------------|--

Chorus

E|--------------------------------------|--------------------------------------|--
B|--------------------------------------|--------------------------------------|--
G|--------0-----------------3--1--1--0--|--------0-----------------------------|--
D|--1--1-----1-----0--1-----------------|--1--1-----1-----0--1-----3--5--5--3--|--
A|--------------------------------------|--------------------------------------|--
E|--------------------------------------|--------------------------------------|--

							http://www.guitartabcreator.com
Chords

Instruments
{"strings":[[[".",".",".",".",".",".",".",".",".",".",".",".",".",".",".",".","|",".",".",".",".",".",".",".",".",".",".",".",".",".",".",".",".","|"],[".",".",".",".",".",".",".",".",".",".",".",".",".",".",".",".","|",".",".",".",".",".",".",".",".",".",".",".",".",".",".",".",".","|"],[".",".",".",".",".",".",".",".",".",".",".",3,".",".",".",0,"|",".",".",".",".",".",".",".",".",".",".",".",".",".",".",".",".","|"],[".",".",0,".",0,".",0,".",0,".",".",".",".",3,".",".","|",".",".",0,".",0,".",0,".",0,".",".",0,".",1,".",3,"|"],[3,3,".",1,".",3,".",1,".",1,1,".",1,".",1,".","|",3,3,".",1,".",3,".",1,".",1,1,".",1,".",1,".","|"],[".",".",".",".",".",".",".",".",".",".",".",".",".",".",".",".","|",".",".",".",".",".",".",".",".",".",".",".",".",".",".",".",".","|"]],[[3,"_","_","_","_",3,3,3,"_","_","_","_","|"],[4,"_","_","_","_",4,4,4,"_","_","_","_","|"],[5,"_","_","_","_",5,5,5,"_","_","_","_","|"],[5,"_","_","_","_",5,5,5,"_","_","_","_","|"],[3,"_","_","_","_",3,3,3,"_","_","_","_","|"],[".","_","_","_","_",".",".",".","_","_","_","_","|"]],[[15,"_",15,"_",15,"_",15,"_",15,"_",15,"_",15,"_",15,"_","_",15,15,15,"_","|"],[16,"_",16,"_",16,"_",16,"_",16,"_",16,"_",16,"_",16,"_","_",16,16,16,"_","|"],[17,"_",17,"_",17,"_",17,"_",17,"_",17,"_",17,"_",17,"_","_",17,17,17,"_","|"],[17,"_",17,"_",17,"_",17,"_",17,"_",17,"_",17,"_",17,"_","_",17,17,17,"_","|"],[15,"_",15,"_",15,"_",15,"_",15,"_",15,"_",15,"_",15,"_","_",15,15,15,"_","|"],[".","_",".","_",".","_",".","_",".","_",".","_",".","_",".","_","_",".",".",".","_","|"]],[[".",".",".",".","_",".",".","_",".",".",".",".","|",".",".",".",".","_",".",".","_",".",".",".",".","|"],[".",".",".",".","_",".",".","_",".",".",".",".","|",".",".",".",".","_",".",".","_",".",".",".",".","|"],[".",".",0,".","_",".",".","_",3,1,1,0,"|",".",".",0,".","_",".",".","_",".",".",".",".","|"],[1,1,".",1,"_",0,1,"_",".",".",".",".","|",1,1,".",1,"_",0,1,"_",3,5,5,3,"|"],[".",".",".",".","_",".",".","_",".",".",".",".","|",".",".",".",".","_",".",".","_",".",".",".",".","|"],[".",".",".",".","_",".",".","_",".",".",".",".","|",".",".",".",".","_",".",".","_",".",".",".",".","|"]]],"numberofstrings":6,"notes":["E","B","G","D","A","E","B"],"capo":0,"stringnotes":["E4","B3","G3","D3","A2","E2"],"comments":["intro","verse break","ignite!","Chorus"],"timing":[["W","W","W","W","W","W","W","W","W","W","W","W","W","W","W","W",null,"W","W","W","W","W","W","W","W","W","W","W","W","W","W","W","W"],["W","W","W","W","W","W","W","W","W","W","W","W"],["W","W","W","W","W","W","W","W","W","W","W","W","W","W","W","W","W","W","W","W","W"],["W","W","W","W","W","W","W","W","W","W","W","W",null,"W","W","W","W","W","W","W","W","W","W","W","W"]],"timingvisible":false,"tabcounter":26,"stave":3,"totalstaves":4,"instrument":"6guitar","selectedtuning":"6_standard","version":"13"}

Member for

1 month 2 weeks
Submitted by mr.kramer on Sat, 2021-12-04 21:32