Seance

01234567891011121314151617181920212223
E
B
G
D
A
E
B
0 1 2 3 4 5 6 7 8 9 10 11 12 13 14 15 16 17 18 19 20 21 22 23
(/) Slide Up  (\) Slide Down  (h) Hammer On  (p) Pull Off  (b) Bend (r) Release (v) Vibrato

First verse

E|----------------------|-----------------------------------------------|-------------------|--
B|--------8-------------|--------8--------4/6/8------9------8------6/4--|-------------------|--
G|--5--------7----------|--5--------7------------10-----10-----10-------|--5--8--7----------|--
D|-----------------9\5--|-----------------------------------------------|--------------9\5--|--
A|----------------------|-----------------------------------------------|-------------------|--
E|----------------------|-----------------------------------------------|-------------------|--

Verse 2

E|--------------------------------------------------|--
B|--------------------------------------------------|--
G|--------------------------------------------------|--
D|-----6--6--6--6--5--5--5--5-----------------------|--
A|--4--------------------------8--8--8--8--7--7--4--|--
E|--------------------------------------------------|--

Verse 2 (last 3 bars variation)

E|--------------------------------------------------|--------------------------------------------------|--------------------------------------------------|--
B|--------------------------------------------------|--------------------------------------------------|--------------------------------------------------|--
G|--------------------------------------------------|--6-----------------------------------------------|--------------------------------------------------|--
D|-----6--6--6--6--5--5--5--5-----------------------|--------6--6--6--5--5--5--5-----------------------|-----6--6--6--6--5--5--5--5-----------------------|--
A|--4--------------------------8--8--8--8--7--7--4--|-----4-----------------------8--8--8--8--7--7--4--|--4--------------------------3--3--3--3-----------|--
E|--------------------------------------------------|--------------------------------------------------|-----------------------------------------4--4--3--|--

Chorus

E|------------------------------------------------------------------------------------------------|--
B|--6-----5-----6-----5-----6-----5-----5-----5\8\5-----6-----5-----6-----5-----6-----5-----5--5--|--
G|-----6-----6-----6-----6-----6-----6-----6---------------6-----6-----6-----6-----6-----6--6--6--|--
D|------------------------------------------------------------------------------------------------|--
A|------------------------------------------------------------------------------------------------|--
E|------------------------------------------------------------------------------------------------|--



E|---------------------------------------------------------------------------------------------------|--
B|-----6-----5-----6-----5-----6-----5-----5-----5/8/5-----6-----5-----6-----5-----6-----5-----5--5--|--
G|--6-----6-----6-----6-----6-----6-----6-----6---------------6-----6-----6-----6-----6-----6--6--6--|--
D|---------------------------------------------------------------------------------------------------|--
A|---------------------------------------------------------------------------------------------------|--
E|---------------------------------------------------------------------------------------------------|--

post chorus 

E|--15--13--11--10--8--7--|--15--13--11--10/15--16--|--15--13--11--10--8--7--|--15--13--11--8--10--7/8--|--
B|------------------------|-------------------------|------------------------|--------------------------|--
G|------------------------|-------------------------|------------------------|--------------------------|--
D|------------------------|-------------------------|------------------------|--------------------------|--
A|------------------------|-------------------------|------------------------|--------------------------|--
E|------------------------|-------------------------|------------------------|--------------------------|--

							http://www.guitartabcreator.com
Chords

Instruments
{"strings":[[[".","_",".",".","_",".",".",".","|",".","_",".",".","_",".",".",".",".",".",".",".",".",".",".",".",".",".","|",".",".",".","_",".",".",".","|"],[".","_",8,".","_",".",".",".","|",".","_",8,".","_",4,"/",6,"/",8,".",9,".",8,".",6,"/",4,"|",".",".",".","_",".",".",".","|"],[5,"_",".",7,"_",".",".",".","|",5,"_",".",7,"_",".",".",".",".",".",10,".",10,".",10,".",".",".","|",5,8,7,"_",".",".",".","|"],[".","_",".",".","_",9,"\\",5,"|",".","_",".",".","_",".",".",".",".",".",".",".",".",".",".",".",".",".","|",".",".",".","_",9,"\\",5,"|"],[".","_",".",".","_",".",".",".","|",".","_",".",".","_",".",".",".",".",".",".",".",".",".",".",".",".",".","|",".",".",".","_",".",".",".","|"],[".","_",".",".","_",".",".",".","|",".","_",".",".","_",".",".",".",".",".",".",".",".",".",".",".",".",".","|",".",".",".","_",".",".",".","|"]],[[".",".",".",".",".",".",".",".",".",".",".",".",".",".",".",".","|"],[".",".",".",".",".",".",".",".",".",".",".",".",".",".",".",".","|"],[".",".",".",".",".",".",".",".",".",".",".",".",".",".",".",".","|"],[".",6,6,6,6,5,5,5,5,".",".",".",".",".",".",".","|"],[4,".",".",".",".",".",".",".",".",8,8,8,8,7,7,4,"|"],[".",".",".",".",".",".",".",".",".",".",".",".",".",".",".",".","|"]],[[".",".",".",".",".",".",".",".",".",".",".",".",".",".",".",".","|",".",".",".",".",".",".",".",".",".",".",".",".",".",".",".",".","|",".",".",".",".",".",".",".",".",".",".",".",".",".",".",".",".","|"],[".",".",".",".",".",".",".",".",".",".",".",".",".",".",".",".","|",".",".",".",".",".",".",".",".",".",".",".",".",".",".",".",".","|",".",".",".",".",".",".",".",".",".",".",".",".",".",".",".",".","|"],[".",".",".",".",".",".",".",".",".",".",".",".",".",".",".",".","|",6,".",".",".",".",".",".",".",".",".",".",".",".",".",".",".","|",".",".",".",".",".",".",".",".",".",".",".",".",".",".",".",".","|"],[".",6,6,6,6,5,5,5,5,".",".",".",".",".",".",".","|",".",".",6,6,6,5,5,5,5,".",".",".",".",".",".",".","|",".",6,6,6,6,5,5,5,5,".",".",".",".",".",".",".","|"],[4,".",".",".",".",".",".",".",".",8,8,8,8,7,7,4,"|",".",4,".",".",".",".",".",".",".",8,8,8,8,7,7,4,"|",4,".",".",".",".",".",".",".",".",3,3,3,3,".",".",".","|"],[".",".",".",".",".",".",".",".",".",".",".",".",".",".",".",".","|",".",".",".",".",".",".",".",".",".",".",".",".",".",".",".",".","|",".",".",".",".",".",".",".",".",".",".",".",".",".",4,4,3,"|"]],[[".",".",".",".",".",".",".",".",".",".",".",".",".",".",".",".",".",".",".","_",".",".",".",".",".",".",".",".",".",".",".",".",".",".","|"],[6,".",5,".",6,".",5,".",6,".",5,".",5,".",5,"\\",8,"\\",5,"_",6,".",5,".",6,".",5,".",6,".",5,".",5,5,"|"],[".",6,".",6,".",6,".",6,".",6,".",6,".",6,".",".",".",".",".","_",".",6,".",6,".",6,".",6,".",6,".",6,6,6,"|"],[".",".",".",".",".",".",".",".",".",".",".",".",".",".",".",".",".",".",".","_",".",".",".",".",".",".",".",".",".",".",".",".",".",".","|"],[".",".",".",".",".",".",".",".",".",".",".",".",".",".",".",".",".",".",".","_",".",".",".",".",".",".",".",".",".",".",".",".",".",".","|"],[".",".",".",".",".",".",".",".",".",".",".",".",".",".",".",".",".",".",".","_",".",".",".",".",".",".",".",".",".",".",".",".",".",".","|"]],[[".",".",".",".",".",".",".",".",".",".",".",".",".",".",".",".",".",".",".",".","_",".",".",".",".",".",".",".",".",".",".",".",".",".",".","|"],[".",6,".",5,".",6,".",5,".",6,".",5,".",5,".",5,"/",8,"/",5,"_",6,".",5,".",6,".",5,".",6,".",5,".",5,5,"|"],[6,".",6,".",6,".",6,".",6,".",6,".",6,".",6,".",".",".",".",".","_",".",6,".",6,".",6,".",6,".",6,".",6,6,6,"|"],[".",".",".",".",".",".",".",".",".",".",".",".",".",".",".",".",".",".",".",".","_",".",".",".",".",".",".",".",".",".",".",".",".",".",".","|"],[".",".",".",".",".",".",".",".",".",".",".",".",".",".",".",".",".",".",".",".","_",".",".",".",".",".",".",".",".",".",".",".",".",".",".","|"],[".",".",".",".",".",".",".",".",".",".",".",".",".",".",".",".",".",".",".",".","_",".",".",".",".",".",".",".",".",".",".",".",".",".",".","|"]],[[15,13,11,10,8,7,"|",15,13,11,10,"/",15,16,"|",15,13,11,10,8,7,"|",15,13,11,8,10,7,"/",8,"|"],[".",".",".",".",".",".","|",".",".",".",".",".",".",".","|",".",".",".",".",".",".","|",".",".",".",".",".",".",".",".","|"],[".",".",".",".",".",".","|",".",".",".",".",".",".",".","|",".",".",".",".",".",".","|",".",".",".",".",".",".",".",".","|"],[".",".",".",".",".",".","|",".",".",".",".",".",".",".","|",".",".",".",".",".",".","|",".",".",".",".",".",".",".",".","|"],[".",".",".",".",".",".","|",".",".",".",".",".",".",".","|",".",".",".",".",".",".","|",".",".",".",".",".",".",".",".","|"],[".",".",".",".",".",".","|",".",".",".",".",".",".",".","|",".",".",".",".",".",".","|",".",".",".",".",".",".",".",".","|"]]],"numberofstrings":6,"notes":["E","B","G","D","A","E","B"],"capo":0,"stringnotes":["E4","B3","G3","D3","A2","E2"],"comments":["First verse","Verse 2","Verse 2 (last 3 bars variation)","Chorus","","post chorus "],"timing":[["W","W","W","W","W","W",null,"W",null,"W","W","W","W","W","W",null,"W",null,"W","W","W","W","W","W","W",null,"W",null,"W","W","W","W","W",null,"W"],["W","W","W","W","W","W","W","W","W","W","W","W","W","W","W","W"],["W","W","W","W","W","W","W","W","W","W","W","W","W","W","W","W",null,"W","W","W","W","W","W","W","W","W","W","W","W","W","W","W","W",null,"W","W","W","W","W","W","W","W","W","W","W","W","W","W","W","W"],[],null,["W","W","W","W","W","W",null,"W","W","W","W",null,"W","W",null,"W","W","W","W","W","W",null,"W","W","W","W","W","W",null,"W"]],"timingvisible":false,"tabcounter":31,"stave":5,"totalstaves":6,"instrument":"6guitar","selectedtuning":"6_standard","version":"13"}

Member for

1 month 2 weeks
Submitted by mr.kramer on Sun, 2021-12-05 02:10