Departure

01234567891011121314151617181920212223
E
B
G
D
A
E
B
0 1 2 3 4 5 6 7 8 9 10 11 12 13 14 15 16 17 18 19 20 21 22 23
(/) Slide Up  (\) Slide Down  (h) Hammer On  (p) Pull Off  (b) Bend (r) Release (v) Vibrato

intro

E|-----------------------|-----------------|--
B|-----------------------|-----------------|--
G|-----------------7-----|-----------------|--
D|--------------------5--|-----7--5--------|--
A|--------5--------------|--3--------5--7--|--
E|--0--3-----0--3--------|-----------------|--

verse

E|--------------------------------------------------------------------------------------------------|--
B|--5--5--5--5--5--5--5--5--8--8--8--8--8--8--8--8--3--3--3--3--3--3--3--3--7--7--7--7--7--7--7--7--|--
G|--------------------------------------------------------------------------------------------------|--
D|--------------------------------------------------------------------------------------------------|--
A|--------------------------------------------------------------------------------------------------|--
E|--------------------------------------------------------------------------------------------------|--



E|----------------------------------------------------------------------------------------------------------|--
B|--5--5--5--5--5--5--5--5--8--8--8--8--8--8--8--8--3--3--3--3--3--3--3--3--10--10--10--10--10--10--10--10--|--
G|----------------------------------------------------------------------------------------------------------|--
D|----------------------------------------------------------------------------------------------------------|--
A|----------------------------------------------------------------------------------------------------------|--
E|----------------------------------------------------------------------------------------------------------|--

Pre Chorus

E|--15--------------15--------------15--------------15--------------|--12--------------12--------------10--------------10--------------|--
B|------12--12--12------12--12--12------12--12--12------12--12--12--|------12--12--12------12--12--12------12--12--12------12--12--12--|--
G|------------------------------------------------------------------|------------------------------------------------------------------|--
D|------------------------------------------------------------------|------------------------------------------------------------------|--
A|------------------------------------------------------------------|------------------------------------------------------------------|--
E|------------------------------------------------------------------|------------------------------------------------------------------|--

Chorus/outro

E|--0-----------------------|--0-----------0-----------|--
B|--0-----------------------|--0-----------0-----------|--
G|--4-----------------------|--0-----------0-----------|--
D|--5-----------------------|--2-----------4-----------|--
A|--7-----------------------|--3-----------5-----------|--
E|--------------------------|--------------------------|--

							http://www.guitartabcreator.com
Chords

Instruments
{"strings":[[[".",".",".",".",".",".",".","|",".",".",".",".",".","|"],[".",".",".",".",".",".",".","|",".",".",".",".",".","|"],[".",".",".",".",".",7,".","|",".",".",".",".",".","|"],[".",".",".",".",".",".",5,"|",".",7,5,".",".","|"],[".",".",5,".",".",".",".","|",3,".",".",5,7,"|"],[0,3,".",0,3,".",".","|",".",".",".",".",".","|"]],[[".",".",".",".",".",".",".",".",".",".",".",".",".",".",".",".",".",".",".",".",".",".",".",".",".",".",".",".",".",".",".",".","|"],[5,5,5,5,5,5,5,5,8,8,8,8,8,8,8,8,3,3,3,3,3,3,3,3,7,7,7,7,7,7,7,7,"|"],[".",".",".",".",".",".",".",".",".",".",".",".",".",".",".",".",".",".",".",".",".",".",".",".",".",".",".",".",".",".",".",".","|"],[".",".",".",".",".",".",".",".",".",".",".",".",".",".",".",".",".",".",".",".",".",".",".",".",".",".",".",".",".",".",".",".","|"],[".",".",".",".",".",".",".",".",".",".",".",".",".",".",".",".",".",".",".",".",".",".",".",".",".",".",".",".",".",".",".",".","|"],[".",".",".",".",".",".",".",".",".",".",".",".",".",".",".",".",".",".",".",".",".",".",".",".",".",".",".",".",".",".",".",".","|"]],[[".",".",".",".",".",".",".",".",".",".",".",".",".",".",".",".",".",".",".",".",".",".",".",".",".",".",".",".",".",".",".",".","|"],[5,5,5,5,5,5,5,5,8,8,8,8,8,8,8,8,3,3,3,3,3,3,3,3,10,10,10,10,10,10,10,10,"|"],[".",".",".",".",".",".",".",".",".",".",".",".",".",".",".",".",".",".",".",".",".",".",".",".",".",".",".",".",".",".",".",".","|"],[".",".",".",".",".",".",".",".",".",".",".",".",".",".",".",".",".",".",".",".",".",".",".",".",".",".",".",".",".",".",".",".","|"],[".",".",".",".",".",".",".",".",".",".",".",".",".",".",".",".",".",".",".",".",".",".",".",".",".",".",".",".",".",".",".",".","|"],[".",".",".",".",".",".",".",".",".",".",".",".",".",".",".",".",".",".",".",".",".",".",".",".",".",".",".",".",".",".",".",".","|"]],[[15,".",".",".",15,".",".",".",15,".",".",".",15,".",".",".","|",12,".",".",".",12,".",".",".",10,".",".",".",10,".",".",".","|"],[".",12,12,12,".",12,12,12,".",12,12,12,".",12,12,12,"|",".",12,12,12,".",12,12,12,".",12,12,12,".",12,12,12,"|"],[".",".",".",".",".",".",".",".",".",".",".",".",".",".",".",".","|",".",".",".",".",".",".",".",".",".",".",".",".",".",".",".",".","|"],[".",".",".",".",".",".",".",".",".",".",".",".",".",".",".",".","|",".",".",".",".",".",".",".",".",".",".",".",".",".",".",".",".","|"],[".",".",".",".",".",".",".",".",".",".",".",".",".",".",".",".","|",".",".",".",".",".",".",".",".",".",".",".",".",".",".",".",".","|"],[".",".",".",".",".",".",".",".",".",".",".",".",".",".",".",".","|",".",".",".",".",".",".",".",".",".",".",".",".",".",".",".",".","|"]],[[0,"_","_","_","_","_","_","_","|",0,"_","_","_",0,"_","_","_","|"],[0,"_","_","_","_","_","_","_","|",0,"_","_","_",0,"_","_","_","|"],[4,"_","_","_","_","_","_","_","|",0,"_","_","_",0,"_","_","_","|"],[5,"_","_","_","_","_","_","_","|",2,"_","_","_",4,"_","_","_","|"],[7,"_","_","_","_","_","_","_","|",3,"_","_","_",5,"_","_","_","|"],[".","_","_","_","_","_","_","_","|",".","_","_","_",".","_","_","_","|"]]],"numberofstrings":6,"notes":["E","B","G","D","A","E","B"],"capo":0,"stringnotes":["E4","B3","G3","D3","A2","E2"],"comments":["intro","verse","","Pre Chorus","Chorus/outro"],"timing":[["W","W","W","W","W","W","W",null,"W","W","W","W","W"],["W","W","W","W","W","W","W","W","W","W","W","W","W","W","W","W","W","W","W","W","W","W","W","W","W","W","W","W","W","W","W","W"],["W","W","W","W","W","W","W","W","W","W","W","W","W","W","W","W","W","W","W","W","W","W","W","W","W","W","W","W","W","W","W","W"],["W","W","W","W","W","W","W","W","W","W","W","W","W","W","W","W",null,"W","W","W","W","W","W","W","W","W","W","W","W","W","W","W","W"],["W","W","W","W","W","W","W","W",null,"W","W","W","W","W","W","W","W"]],"timingvisible":false,"tabcounter":18,"stave":4,"totalstaves":5,"instrument":"6guitar","selectedtuning":"6_standard","version":"13"}

Member for

1 month 2 weeks
Submitted by mr.kramer on Sun, 2021-12-05 02:39