Chrysalis

01234567891011121314151617181920212223
E
B
G
D
A
E
B
0 1 2 3 4 5 6 7 8 9 10 11 12 13 14 15 16 17 18 19 20 21 22 23
(/) Slide Up  (\) Slide Down  (h) Hammer On  (p) Pull Off  (b) Bend (r) Release (v) Vibrato

intro

E|--------------------------------------------|--
B|--------------------------------------------|--
G|--------------------------------------------|--
D|--------------------------------------------|--
A|--2--------0--2--5-----0--2--3-----5--3--2--|--
E|--------------------------------------------|--

verse pt1

E|--------------------------------------------------|--------------------------------------------------------|--
B|--------------------------------------------------|--------------------------------------------------------|--
G|--------------------------------------------------|--------------------------------------------------------|--
D|--------------------------------------------------|-----------------------------------------------5--5--4--|--
A|--7--7--------7--7--7-----7--7--7-----7--7--7--7--|--7--7-----7--7--7-----7--7--7-----7--7--7--7-----------|--
E|--------------------------------------------------|--------------------------------------------------------|--

verse pt2 (5s at end are harmonics)

E|--------------------------------------------------|-------------------------------------------------|--
B|-----------------------------------------------5--|----------------------------------------5--------|--
G|--------------------------------------------5-----|----------------------------------------------5--|--
D|--------------------5-----4-----5-----------------|-----------5-----4-----5-------------------5-----|--
A|--7--7--7-----7--------7-----7-----7--5-----------|--7--7--------7-----7-----7-----3/5--------------|--
E|--------------------------------------------------|-------------------------------------------------|--



E|--------------------------------------------------|--------------------------------------------|--
B|-----------------------------------------------5--|--------------------------------------------|--
G|--------------------------------------------5-----|--------------------------------------------|--
D|--------------------5-----4-----5-----------------|-----------5-----4-----5-------------5/7/9--|--
A|--7--7--7-----7--------7-----7-----7--5-----------|--7--7--------7-----7-----7-----3/5---------|--
E|--------------------------------------------------|--------------------------------------------|--

chorus

E|-------------------------|-------------------------|--
B|-------------------------|-------------------------|--
G|-----7-----5-----4/5--5--|-----7-----5-----7/9--9--|--
D|-------------------------|-------------------------|--
A|--8-----8-----8----------|--8-----8-----8----------|--
E|-------------------------|-------------------------|--

outro

E|------------------------------------------------------------------------|-----------------------------------------------------------------------|--
B|--12--12-----12-----10-----10-----12--12-----12-----13--12--10--12--12--|--12--12-----12-----10-----10-----12--12-----12-----12-----------------|--
G|----------9------9------9------9----------9------9----------------------|----------9------9------9------9----------9------9------9--7--9--9-----|--
D|------------------------------------------------------------------------|-----------------------------------------------------------------------|--
A|------------------------------------------------------------------------|-----------------------------------------------------------------------|--
E|------------------------------------------------------------------------|-----------------------------------------------------------------------|--

							http://www.guitartabcreator.com
Chords

Instruments
{"strings":[[[".","_","_",".",".",".","_",".",".",".","_",".",".",".","|"],[".","_","_",".",".",".","_",".",".",".","_",".",".",".","|"],[".","_","_",".",".",".","_",".",".",".","_",".",".",".","|"],[".","_","_",".",".",".","_",".",".",".","_",".",".",".","|"],[2,"_","_",0,2,5,"_",0,2,3,"_",5,3,2,"|"],[".","_","_",".",".",".","_",".",".",".","_",".",".",".","|"]],[[".",".","_","_",".",".",".","_",".",".",".","_",".",".",".",".","|",".",".","_",".",".",".","_",".",".",".","_",".",".",".",".",".",".",".","|"],[".",".","_","_",".",".",".","_",".",".",".","_",".",".",".",".","|",".",".","_",".",".",".","_",".",".",".","_",".",".",".",".",".",".",".","|"],[".",".","_","_",".",".",".","_",".",".",".","_",".",".",".",".","|",".",".","_",".",".",".","_",".",".",".","_",".",".",".",".",".",".",".","|"],[".",".","_","_",".",".",".","_",".",".",".","_",".",".",".",".","|",".",".","_",".",".",".","_",".",".",".","_",".",".",".",".",5,5,4,"|"],[7,7,"_","_",7,7,7,"_",7,7,7,"_",7,7,7,7,"|",7,7,"_",7,7,7,"_",7,7,7,"_",7,7,7,7,".",".",".","|"],[".",".","_","_",".",".",".","_",".",".",".","_",".",".",".",".","|",".",".","_",".",".",".","_",".",".",".","_",".",".",".",".",".",".",".","|"]],[[".",".",".","_",".","_",".",".",".",".",".",".",".","_",".",".","|",".",".","_",".",".",".",".",".",".","_",".",".",".","_",".",".",".","|"],[".",".",".","_",".","_",".",".",".",".",".",".",".","_",".",5,"|",".",".","_",".",".",".",".",".",".","_",".",".",".","_",5,".",".","|"],[".",".",".","_",".","_",".",".",".",".",".",".",".","_",5,".","|",".",".","_",".",".",".",".",".",".","_",".",".",".","_",".",".",5,"|"],[".",".",".","_",".","_",5,".",4,".",5,".",".","_",".",".","|",".",".","_",5,".",4,".",5,".","_",".",".",".","_",".",5,".","|"],[7,7,7,"_",7,"_",".",7,".",7,".",7,5,"_",".",".","|",7,7,"_",".",7,".",7,".",7,"_",3,"/",5,"_",".",".",".","|"],[".",".",".","_",".","_",".",".",".",".",".",".",".","_",".",".","|",".",".","_",".",".",".",".",".",".","_",".",".",".","_",".",".",".","|"]],[[".",".",".","_",".","_",".",".",".",".",".",".",".","_",".",".","|",".",".","_",".",".",".",".",".",".","_",".",".",".",".",".",".",".",".","|"],[".",".",".","_",".","_",".",".",".",".",".",".",".","_",".",5,"|",".",".","_",".",".",".",".",".",".","_",".",".",".",".",".",".",".",".","|"],[".",".",".","_",".","_",".",".",".",".",".",".",".","_",5,".","|",".",".","_",".",".",".",".",".",".","_",".",".",".",".",".",".",".",".","|"],[".",".",".","_",".","_",5,".",4,".",5,".",".","_",".",".","|",".",".","_",5,".",4,".",5,".","_",".",".",".",5,"/",7,"/",9,"|"],[7,7,7,"_",7,"_",".",7,".",7,".",7,5,"_",".",".","|",7,7,"_",".",7,".",7,".",7,"_",3,"/",5,".",".",".",".",".","|"],[".",".",".","_",".","_",".",".",".",".",".",".",".","_",".",".","|",".",".","_",".",".",".",".",".",".","_",".",".",".",".",".",".",".",".","|"]],[[".",".",".",".",".",".",".",".",".","|",".",".",".",".",".",".",".",".",".","|"],[".",".",".",".",".",".",".",".",".","|",".",".",".",".",".",".",".",".",".","|"],[".",7,".",5,".",4,"/",5,5,"|",".",7,".",5,".",7,"/",9,9,"|"],[".",".",".",".",".",".",".",".",".","|",".",".",".",".",".",".",".",".",".","|"],[8,".",8,".",8,".",".",".",".","|",8,".",8,".",8,".",".",".",".","|"],[".",".",".",".",".",".",".",".",".","|",".",".",".",".",".",".",".",".",".","|"]],[[".",".",".",".",".",".",".",".",".",".",".",".",".",".",".",".",".",".",".","|",".",".",".",".",".",".",".",".",".",".",".",".",".",".",".",".",".",".",".","_","|"],[12,12,".",12,".",10,".",10,".",12,12,".",12,".",13,12,10,12,12,"|",12,12,".",12,".",10,".",10,".",12,12,".",12,".",12,".",".",".",".","_","|"],[".",".",9,".",9,".",9,".",9,".",".",9,".",9,".",".",".",".",".","|",".",".",9,".",9,".",9,".",9,".",".",9,".",9,".",9,7,9,9,"_","|"],[".",".",".",".",".",".",".",".",".",".",".",".",".",".",".",".",".",".",".","|",".",".",".",".",".",".",".",".",".",".",".",".",".",".",".",".",".",".",".","_","|"],[".",".",".",".",".",".",".",".",".",".",".",".",".",".",".",".",".",".",".","|",".",".",".",".",".",".",".",".",".",".",".",".",".",".",".",".",".",".",".","_","|"],[".",".",".",".",".",".",".",".",".",".",".",".",".",".",".",".",".",".",".","|",".",".",".",".",".",".",".",".",".",".",".",".",".",".",".",".",".",".",".","_","|"]]],"numberofstrings":6,"notes":["E","B","G","D","A","E","B"],"capo":0,"stringnotes":["E4","B3","G3","D3","A2","E2"],"comments":["intro","verse pt1","verse pt2 (5s at end are harmonics)","","chorus","outro"],"timing":[["W","W","W","W","W","W","W","W","W","W","W","W","W","W"],["W","W","W","W","W","W","W","W","W","W","W","W","W","W","W","W",null,"W","W","W","W","W","W","W","W","W","W","W","W","W","W","W","W","W","W"],["W","W","W","W","W","W","W","W","W","W","W","W","W","W","W","W",null,"W","W","W","W","W","W","W","W","W","W","W",null,"W","W","W","W","W"],["W","W","W","W","W","W","W","W","W","W","W","W","W","W","W","W",null,"W","W","W","W","W","W","W","W","W","W","W",null,"W","W",null,"W",null,"W"],["W","W","W","W","W","W",null,"W","W",null,"W","W","W","W","W","W",null,"W","W"],["W","W","W","W","W","W","W","W","W","W","W","W","W","W","W","W","W","W","W",null,"W","W","W","W","W","W","W","W","W","W","W","W","W","W","W","W","W","W","W","W"]],"timingvisible":false,"tabcounter":41,"stave":5,"totalstaves":6,"instrument":"6guitar","selectedtuning":"6_standard","version":"13"}

Member for

1 month 2 weeks
Submitted by mr.kramer on Sat, 2021-12-04 21:53