Body Snatchers

01234567891011121314151617181920212223
E
B
G
D
A
E
B
0 1 2 3 4 5 6 7 8 9 10 11 12 13 14 15 16 17 18 19 20 21 22 23
(/) Slide Up  (\) Slide Down  (h) Hammer On  (p) Pull Off  (b) Bend (r) Release (v) Vibrato

Capo Fret 3

verse

E|-----------------------------------------|--------------------------------------------|--
B|-----------3--------3--------5--------5--|-----------3--------3--------7--------5-----|--
G|-----6--------6--------6--------6--------|-----6--------6--------6--------6--------6--|--
D|--7-----7--------7--------7--------7-----|--7-----7--------7--------7--------7--------|--
A|-----------------------------------------|--------------------------------------------|--
E|-----------------------------------------|--------------------------------------------|--



E|-----5--------3-----------------------------------|-----5--------3-----------------------------------|--
B|--------3--------3-----7--------5--------5-----7--|--------3--------3-----7--------5-----5--7-----3--|--
G|-----------6--------6-----6--------6--------------|-----------6--------6-----6--------6--------6-----|--
D|--7--------------------------7--------7-----7-----|--7--------------------------7--------------------|--
A|--------------------------------------------------|--------------------------------------------------|--
E|--------------------------------------------------|--------------------------------------------------|--

Verse variation (replace first bar in second run through)

E|-----------------------------5--------------|--
B|-----------3--------3-----------3-----5--3--|--
G|-----6--------6--------6--------------------|--
D|--7-----7--------7--------7--------7--------|--
A|--------------------------------------------|--
E|--------------------------------------------|--

chorus

E|------------------|-----------------|--
B|------------------|-----------------|--
G|------------------|-----7--------8--|--
D|-----8--7---------|--------7--8-----|--
A|-----------9--10--|-----------------|--
E|--3---------------|--3--------------|--

ourtro

E|----------------------------------|----------------------------------|----------------------------------|------------------------------|--
B|--13------13----------13----------|--16------16----------16----------|--14------14----------14----------|--9------9----------8------8--|--
G|------12------12--12------12--12--|------13------13--13------13--13--|------13------13--13------13--13--|-----12-----12--12-----12-----|--
D|----------------------------------|----------------------------------|----------------------------------|------------------------------|--
A|----------------------------------|----------------------------------|----------------------------------|------------------------------|--
E|----------------------------------|----------------------------------|----------------------------------|------------------------------|--

							http://www.guitartabcreator.com
Chords

Instruments
{"strings":[[[".",".",".",".",".",".",".",".",".",".",".",".",".","|",".",".",".",".",".",".",".",".",".",".",".",".",".",".","|"],[".",".",".",3,".",".",3,".",".",5,".",".",5,"|",".",".",".",3,".",".",3,".",".",7,".",".",5,".","|"],[".",6,".",".",6,".",".",6,".",".",6,".",".","|",".",6,".",".",6,".",".",6,".",".",6,".",".",6,"|"],[7,".",7,".",".",7,".",".",7,".",".",7,".","|",7,".",7,".",".",7,".",".",7,".",".",7,".",".","|"],[".",".",".",".",".",".",".",".",".",".",".",".",".","|",".",".",".",".",".",".",".",".",".",".",".",".",".",".","|"],[".",".",".",".",".",".",".",".",".",".",".",".",".","|",".",".",".",".",".",".",".",".",".",".",".",".",".",".","|"]],[[".",5,".",".",3,".",".",".",".",".",".",".",".",".",".",".","|",".",5,".",".",3,".",".",".",".",".",".",".",".",".",".",".","|"],[".",".",3,".",".",3,".",7,".",".",5,".",".",5,".",7,"|",".",".",3,".",".",3,".",7,".",".",5,".",5,7,".",3,"|"],[".",".",".",6,".",".",6,".",6,".",".",6,".",".",".",".","|",".",".",".",6,".",".",6,".",6,".",".",6,".",".",6,".","|"],[7,".",".",".",".",".",".",".",".",7,".",".",7,".",7,".","|",7,".",".",".",".",".",".",".",".",7,".",".",".",".",".",".","|"],[".",".",".",".",".",".",".",".",".",".",".",".",".",".",".",".","|",".",".",".",".",".",".",".",".",".",".",".",".",".",".",".",".","|"],[".",".",".",".",".",".",".",".",".",".",".",".",".",".",".",".","|",".",".",".",".",".",".",".",".",".",".",".",".",".",".",".",".","|"]],[[".",".",".",".",".",".",".",".",".",5,".",".",".",".","|"],[".",".",".",3,".",".",3,".",".",".",3,".",5,3,"|"],[".",6,".",".",6,".",".",6,".",".",".",".",".",".","|"],[7,".",7,".",".",7,".",".",7,".",".",7,".",".","|"],[".",".",".",".",".",".",".",".",".",".",".",".",".",".","|"],[".",".",".",".",".",".",".",".",".",".",".",".",".",".","|"]],[[".",".",".",".",".","|",".",".",".",".",".","|"],[".",".",".",".",".","|",".",".",".",".",".","|"],[".",".",".",".",".","|",".",7,".",".",8,"|"],[".",8,7,".",".","|",".",".",7,8,".","|"],[".",".",".",9,10,"|",".",".",".",".",".","|"],[3,".",".",".",".","|",3,".",".",".",".","|"]],[[".",".",".",".",".",".",".",".","|",".",".",".",".",".",".",".",".","|",".",".",".",".",".",".",".",".","|",".",".",".",".",".",".",".",".","|"],[13,".",13,".",".",13,".",".","|",16,".",16,".",".",16,".",".","|",14,".",14,".",".",14,".",".","|",9,".",9,".",".",8,".",8,"|"],[".",12,".",12,12,".",12,12,"|",".",13,".",13,13,".",13,13,"|",".",13,".",13,13,".",13,13,"|",".",12,".",12,12,".",12,".","|"],[".",".",".",".",".",".",".",".","|",".",".",".",".",".",".",".",".","|",".",".",".",".",".",".",".",".","|",".",".",".",".",".",".",".",".","|"],[".",".",".",".",".",".",".",".","|",".",".",".",".",".",".",".",".","|",".",".",".",".",".",".",".",".","|",".",".",".",".",".",".",".",".","|"],[".",".",".",".",".",".",".",".","|",".",".",".",".",".",".",".",".","|",".",".",".",".",".",".",".",".","|",".",".",".",".",".",".",".",".","|"]]],"numberofstrings":6,"notes":["E","B","G","D","A","E","B"],"capo":"3","stringnotes":["E4","B3","G3","D3","A2","E2"],"comments":["verse","","Verse variation (replace first bar in second run through)","chorus","ourtro"],"timing":[["W","W","W","W","W","W","W","W","W","W","W","W","W",null,"W","W","W","W","W","W","W","W","W","W","W","W","W","W"],["W","W","W","W","W","W","W","W","W","W","W","W","W","W","W","W",null,"W","W","W","W","W","W","W","W","W","W","W","W","W","W","W","W"],["W","W","W","W","W","W","W","W","W","W","W","W","W","W"],["W","W","W","W","W",null,"W","W","W","W","W"],["W","W","W","W","W","W","W","W",null,"W","W","W","W","W","W","W","W",null,"W","W","W","W","W","W","W","W",null,"W","W","W","W","W","W","W","W"]],"timingvisible":false,"tabcounter":36,"stave":4,"totalstaves":5,"instrument":"6guitar","selectedtuning":"6_standard","version":"13"}

Member for

1 month 2 weeks
Submitted by mr.kramer on Sun, 2021-12-05 01:35