Back of Love

01234567891011121314151617181920212223
E
B
G
D
A
E
B
0 1 2 3 4 5 6 7 8 9 10 11 12 13 14 15 16 17 18 19 20 21 22 23
(/) Slide Up  (\) Slide Down  (h) Hammer On  (p) Pull Off  (b) Bend (r) Release (v) Vibrato

Intro:

E|-------------------------------------------------------------------------3-----------------------------------------------------------
B|-----------------------------------------------------------4p3-----------3-----------------------------------------------------------
G|--------------5--------------------------------------5----------5-----5--5-----------------------------------------------------------
D|-----------------------------------------------5-------------------------5-----------------------------------5-----6-----5-----------
A|--3--------3-----------3--3--3--3--3--3--3--3-----3-----3----------3-----3--------3--3--------3--3--3--3--3-----3-----3-----3--1--1--
E|-------------------------------------------------------------------------------------------------------------------------------------

instrumental break part

E|--------------------------------------------------|------------------------------------------------------------|--
B|--------------------------------------------------|------------------------------------------------------------|--
G|--------------------------------------------------|------------------------------------------------------------|--
D|--------------------------------------------------|------------------------------------------------------------|--
A|--3--3--3--5--5--5--6--6--6--8--8--8--6--6--6--6--|--6--6--6--8--8--8--10--10--10--11--11--11--10--10--10--10--|--
E|--------------------------------------------------|------------------------------------------------------------|--



E|--------------------------------------------------|--------------------------------------------------------|--
B|--------------------------------------------------|--------------------------------------------------------|--
G|--------------------------------------------------|--------------------------------------------------------|--
D|--------------------------------------------------|--------------------------------------------------------|--
A|--3--3--3--5--5--5--6--6--6--8--8--8--6--6--6--6--|--6--6--6--8--8--8--10--10--10--11--11--11--5--5--5--5--|--
E|--------------------------------------------------|--------------------------------------------------------|--

verse part one (same as second verse and outro)

E|---------------------------------------------------------------------------------------------------|--
B|---------------------------------------------------------------------------------------------------|--
G|---------------------------------------------------------------------------------------------------|--
D|---------------------------------------------------------------------------------------------------|--
A|--3--3--3--3--3--3--3--3--5--5--5--5--5--5--5--5--6--6--6--6--6--6--6--6--6--6--6/10--10--8--8--8--|--
E|---------------------------------------------------------------------------------------------------|--

Verse part 2 chords

E|--3---------------------|-----
B|--3---------------------|-----
G|--5-----------10-----8--|-----
D|--5-----------10-----8--|-----
A|--3-----------8------6--|-----
E|------------------------|-----

chorus

E|--11------------------------------
B|----------11------11------11------
G|------12------12------12------12--
D|----------------------------------
A|----------------------------------
E|----------------------------------

solo

E|---------------------------------------------------------------------------------
B|--11--11--9--9--8--8--6--6--6h8--3--4--4/6\1--3--4/13--16--15--13/20--13/18--16--
G|---------------------------------------------------------------------------------
D|---------------------------------------------------------------------------------
A|---------------------------------------------------------------------------------
E|---------------------------------------------------------------------------------

							http://www.guitartabcreator.com
Chords

Instruments
{"strings":[[[".","_","_",".",".","_","_",".",".",".",".",".",".",".",".",".",".",".",".",".",".",".",".",".",".",3,"_","_",".",".","_","_",".",".",".",".",".",".",".",".",".",".",".",".","."],[".","_","_",".",".","_","_",".",".",".",".",".",".",".",".",".",".",".",".",4,"p",3,".",".",".",3,"_","_",".",".","_","_",".",".",".",".",".",".",".",".",".",".",".",".","."],[".","_","_",".",5,"_","_",".",".",".",".",".",".",".",".",".",".",5,".",".",".",".",5,".",5,5,"_","_",".",".","_","_",".",".",".",".",".",".",".",".",".",".",".",".","."],[".","_","_",".",".","_","_",".",".",".",".",".",".",".",".",5,".",".",".",".",".",".",".",".",".",5,"_","_",".",".","_","_",".",".",".",".",".",5,".",6,".",5,".",".","."],[3,"_","_",3,".","_","_",3,3,3,3,3,3,3,3,".",3,".",3,".",".",".",".",3,".",3,"_","_",3,3,"_","_",3,3,3,3,3,".",3,".",3,".",3,1,1],[".","_","_",".",".","_","_",".",".",".",".",".",".",".",".",".",".",".",".",".",".",".",".",".",".",".","_","_",".",".","_","_",".",".",".",".",".",".",".",".",".",".",".",".","."]],[[".",".",".",".",".",".",".",".",".",".",".",".",".",".",".",".","|",".",".",".",".",".",".",".",".",".",".",".",".",".",".",".",".","|"],[".",".",".",".",".",".",".",".",".",".",".",".",".",".",".",".","|",".",".",".",".",".",".",".",".",".",".",".",".",".",".",".",".","|"],[".",".",".",".",".",".",".",".",".",".",".",".",".",".",".",".","|",".",".",".",".",".",".",".",".",".",".",".",".",".",".",".",".","|"],[".",".",".",".",".",".",".",".",".",".",".",".",".",".",".",".","|",".",".",".",".",".",".",".",".",".",".",".",".",".",".",".",".","|"],[3,3,3,5,5,5,6,6,6,8,8,8,6,6,6,6,"|",6,6,6,8,8,8,10,10,10,11,11,11,10,10,10,10,"|"],[".",".",".",".",".",".",".",".",".",".",".",".",".",".",".",".","|",".",".",".",".",".",".",".",".",".",".",".",".",".",".",".",".","|"]],[[".",".",".",".",".",".",".",".",".",".",".",".",".",".",".",".","|",".",".",".",".",".",".",".",".",".",".",".",".",".",".",".",".","|"],[".",".",".",".",".",".",".",".",".",".",".",".",".",".",".",".","|",".",".",".",".",".",".",".",".",".",".",".",".",".",".",".",".","|"],[".",".",".",".",".",".",".",".",".",".",".",".",".",".",".",".","|",".",".",".",".",".",".",".",".",".",".",".",".",".",".",".",".","|"],[".",".",".",".",".",".",".",".",".",".",".",".",".",".",".",".","|",".",".",".",".",".",".",".",".",".",".",".",".",".",".",".",".","|"],[3,3,3,5,5,5,6,6,6,8,8,8,6,6,6,6,"|",6,6,6,8,8,8,10,10,10,11,11,11,5,5,5,5,"|"],[".",".",".",".",".",".",".",".",".",".",".",".",".",".",".",".","|",".",".",".",".",".",".",".",".",".",".",".",".",".",".",".",".","|"]],[[".",".",".",".",".",".",".",".",".",".",".",".",".",".",".",".",".",".",".",".",".",".",".",".",".",".",".",".",".",".",".",".",".","|"],[".",".",".",".",".",".",".",".",".",".",".",".",".",".",".",".",".",".",".",".",".",".",".",".",".",".",".",".",".",".",".",".",".","|"],[".",".",".",".",".",".",".",".",".",".",".",".",".",".",".",".",".",".",".",".",".",".",".",".",".",".",".",".",".",".",".",".",".","|"],[".",".",".",".",".",".",".",".",".",".",".",".",".",".",".",".",".",".",".",".",".",".",".",".",".",".",".",".",".",".",".",".",".","|"],[3,3,3,3,3,3,3,3,5,5,5,5,5,5,5,5,6,6,6,6,6,6,6,6,6,6,6,"/",10,10,8,8,8,"|"],[".",".",".",".",".",".",".",".",".",".",".",".",".",".",".",".",".",".",".",".",".",".",".",".",".",".",".",".",".",".",".",".",".","|"]],[[3,"_","_","_",".","_","_","|","_"],[3,"_","_","_",".","_","_","|","_"],[5,"_","_","_",10,"_",8,"|","_"],[5,"_","_","_",10,"_",8,"|","_"],[3,"_","_","_",8,"_",6,"|","_"],[".","_","_","_",".","_","_","|","_"]],[[11,".",".",".",".",".",".","."],[".",".",11,".",11,".",11,"."],[".",12,".",12,".",12,".",12],[".",".",".",".",".",".",".","."],[".",".",".",".",".",".",".","."],[".",".",".",".",".",".",".","."]],[[".",".",".",".",".",".",".",".",".",".",".",".",".",".",".",".",".",".",".",".",".",".",".",".",".",".",".",".",".",".","."],[11,11,9,9,8,8,6,6,6,"h",8,3,4,4,"/",6,"\\",1,3,4,"/",13,16,15,13,"/",20,13,"/",18,16],[".",".",".",".",".",".",".",".",".",".",".",".",".",".",".",".",".",".",".",".",".",".",".",".",".",".",".",".",".",".","."],[".",".",".",".",".",".",".",".",".",".",".",".",".",".",".",".",".",".",".",".",".",".",".",".",".",".",".",".",".",".","."],[".",".",".",".",".",".",".",".",".",".",".",".",".",".",".",".",".",".",".",".",".",".",".",".",".",".",".",".",".",".","."],[".",".",".",".",".",".",".",".",".",".",".",".",".",".",".",".",".",".",".",".",".",".",".",".",".",".",".",".",".",".","."]]],"numberofstrings":6,"notes":["E","B","G","D","A","E","B"],"capo":0,"stringnotes":["E4","B3","G3","D3","A2","E2"],"comments":["Intro:","instrumental break part","","verse part one (same as second verse and outro)","Verse part 2 chords","chorus","solo"],"timing":[["W","W","W","W","W","W","W","W","W","W","W","W","W","W","W","W","W","W","W",null,"W","W","W","W","W","W","W","W","W","W","W","W","W","W","W","W","W","W","W","W","W","W","W","W","W"],["W","W","W","W","W","W","W","W","W","W","W","W","W","W","W","W",null,"W","W","W","W","W","W","W","W","W","W","W","W","W","W","W","W"],["W","W","W","W","W","W","W","W","W","W","W","W","W","W","W","W",null,"W","W","W","W","W","W","W","W","W","W","W","W","W","W","W","W"],["W","W","W","W","W","W","W","W","W","W","W","W","W","W","W","W","W","W","W","W","W","W","W","W","W","W","W",null,"W","W","W","W","W"],["W","W","W","W","W","W","W",null,"W"],["W","W","W","W","W","W",null,"W"],["W","W","W","W","W","W","W","W","W",null,"W","W","W","W",null,"W",null,"W","W","W",null,"W","W","W","W",null,"W","W",null,"W","W"]],"timingvisible":false,"tabcounter":31,"stave":6,"totalstaves":7,"instrument":"6guitar","selectedtuning":"6_standard","version":"13"}

Member for

1 month 2 weeks
Submitted by mr.kramer on Sat, 2021-12-04 21:16