Sound will begin in 5 seconds

The Night's Beautiful - Composed By Nicholas "Mr.Kimchi" Burden

01234567891011121314151617181920212223
E
B
G
D
A
E
B
0 1 2 3 4 5 6 7 8 9 10 11 12 13 14 15 16 17 18 19 20 21 22 23
Song Science #1: How Pros Use 6 Chords to Write Hit Songs
(/) Slide Up  (\) Slide Down  (h) Hammer On  (p) Pull Off  (b) Bend (r) Release (v) Vibrato

Stave 1:

E|-----------7-------------------7-------------------7-------------------7------14--21--
B|--------------------------------------------------------------------------------------
G|--------6-------------------6-------------------6-------------------6-----------------
D|-----7-------------------7-------------------7-------------------7--------------------
A|--------------------------------------------------------------------------------------
E|--5-------------------5-------------------5-------------------5-----------------------

Stave 2:

E|--------------------------------------------------------------------------------------
B|-----5--5-----5----5-----5-------5--5-----5----5-----5-------3--3-----3----3-----3----
G|-----6--6-----6----6-----6-------6--6-----6----6-----6-------4--4-----4----4-----4----
D|-----6--6-----6----6-----6-------6--6-----6----6-----6-------5--5-----5----5-----5----
A|----------------------------------------------------------0-----0--0----------0-------
E|--5-----5--5----------5-------5-----5--5----------5-----------------------------------

Stave 3:

E|---------------------------------------------------------------------------------0--
B|-------2--2-------0--0-----------0----2---------1-----------1/3------3--3--3/5-------
G|-------2--2-------1--1-----------1----2---------2--------2--------------0------------
D|-------0--0-------0--0-----------0----0---------3-----3-----------------------------
A|---------------------------------------------0-----0-----------------2-----------3--
E|----2--------2p0--------------0-----1h2---------------------------------------------

Stave 4:

E|--------------------------------------------------------------------------------------
B|-------3----------3--------3------------3----------3--------3--------3----------3-----
G|----------0----------0--------0------------0----------0--------0--------0----------0--
D|--------------------------------------------------------------------------------------
A|----3----------3--------3------------3----------2--------2--------2----------2--------
E|--------------------------------------------------------------------------------------

Stave 5:

E|--------------------------------------------------------------------------------
B|-------3--------3--------3--------3------------3--------3--------3-----3-----3--
G|----------0--------0--------0--------0------------0--------0--------------------
D|--------------------------------------------------------------------------------
A|----0--------0--------0--------0------------------------------------0-----2-----
E|--------------------------------------------3--------3--------3-----------------

Stave 6:

E|--------------------------------------------------------------------------------------------------
B|-------3--------3--------3--------3------------3--------3--------3--------3--------3--------3-----
G|----------2--------2--------2--------2------------2--------2--------0--------0--------0--------0--
D|--------------------------------------------------------------------------------------------------
A|----3--------3--------3--------3------------2--------2--------2--------2--------1--------1--------
E|--------------------------------------------------------------------------------------------------

Stave 7:

E|---------------------------------------------------------0---------------
B|-------3--------3/5--3--3/5\3--2----------2-----3-----5------------7-----
G|----------0----------------------------------0-----0------------------7--
D|-------------------------------------------------------------------------
A|----1--------1-------0---------0----------0-----2-----4---------5--------
E|-------------------------------------------------------------------------

Stave 8:

E|----
B|----
G|----
D|----
A|----
E|----

http://www.guitartabcreator.com
Guitar Tab Creator is intended to store guitar tab created through the tool. It currently does not support in-line text editing. Any text you place in here will be lost. If you need to comment on your tab, please use the "Tab Notes" section located below.