Sound will begin in 5 seconds

Vuelve Guitarra Tab

Chords
01234567891011121314151617181920212223
E
B
G
D
A
E
B
0 1 2 3 4 5 6 7 8 9 10 11 12 13 14 15 16 17 18 19 20 21 22 23
Song Science #1: How Pros Use 6 Chords to Write Hit Songs
(/) Slide Up  (\) Slide Down  (h) Hammer On  (p) Pull Off  (b) Bend (r) Release (v) Vibrato

Intro (Primera Vuelta) Acordes: Dm / Asus2 / Am

E|-----5-----|-----7------|-----0-----|--|--
B|-----6-----|-----10-----|-----1-----|--|--
G|-----7-----|-----9------|-----2-----|--|--
D|-----7-----|-----7------|-----2-----|--|--
A|-----5-----|-----7------|-----0-----|--|--
D|-----------|-----7------|-----------|--|--

Intro (Segunda Vuelta) Acordes: Dm / Asus2 / Am Nota: Puedes usar el Am de la primera vuelta

E|-----5-----|-----7------|-----8------|--|--
B|-----6-----|-----10-----|-----10-----|--|--
G|-----7-----|-----9------|-----9------|--|--
D|-----7-----|-----7------|-----7------|--|--
A|-----5-----|-----7------|------------|--|--
D|-----------|-----7------|------------|--|--

Pre-Verso Acordes: Dm / F5 / G5 / D5 Nota: La ultima sección es dos veces y con palm mute en el ultimo acorde

E|-----5-----|--------------------|-----------------------|--|--
B|-----6-----|--------------------|-----------------------|--|--
G|-----7-----|--------------------|-----------------------|--|--
D|-----7-----|-----3--------5-----|-----------------------|--|--
A|-----5-----|-----3--------5-----|--------------------0--|--|--
D|-----------|-----3--------5-----|-----3--2--0--------0--|--|--

Verso Nota: Todas las notas son armonicas y usas el Ducking Delay con 274ms y 4.0 en FDBK

E|-------------------|--|--
B|-------------------|--|--
G|-------------------|--|--
D|---------12--7-----|--|--
A|--12------------7--|--|--
D|-------------------|--|--

Coro Acordes: F / Cmaj7 / Asus2 / Am Nota: Se repite dos veces y en la segunda vuelta omites el Asus2 y vas directo a Am

E|-----8------|-----7------|-----0-----0--|--|--
B|-----10-----|-----8------|-----0-----1--|--|--
G|-----10-----|-----9------|-----2-----2--|--|--
D|-----10-----|-----10-----|-----2-----2--|--|--
A|-----8------|------------|-----0-----0--|--|--
D|------------|------------|--------------|--|--

Post-Coro Acordes: F / Cmaj7 / Dm / F5 / G5 / D5

E|-----8------|-----7------|-----5-----|--------------------|--------------------|--|--
B|-----10-----|-----8------|-----6-----|--------------------|--------------------|--|--
G|-----10-----|-----9------|-----7-----|--------------------|--------------------|--|--
D|-----10-----|-----10-----|-----7-----|-----3--------5-----|--------------------|--|--
A|-----8------|------------|-----5-----|-----3--------5-----|-----------0-----0--|--|--
D|------------|------------|-----------|-----3--------5-----|-----3--2--0-----0--|--|--

http://www.guitartabcreator.com
Guitar Tab Creator is intended to store guitar tab created through the tool. It currently does not support in-line text editing. Any text you place in here will be lost. If you need to comment on your tab, please use the "Tab Notes" section located below.