Sound will begin in 5 seconds

Wish you were here solo intro

Chords
01234567891011121314151617181920212223
E
B
G
D
A
E
B
0 1 2 3 4 5 6 7 8 9 10 11 12 13 14 15 16 17 18 19 20 21 22 23
(/) Slide Up  (\) Slide Down  (h) Hammer On  (p) Pull Off  (b) Bend (r) Release (v) Vibrato

Stave 1:

E|--------------------------------------------
B|-------3-----5p3p0--3-----------------------
G|--2/4------------------4p2p0----------------
D|------------------------------0-------0--0--
A|---------------------------------1/2--------
E|--------------------------------------------

Stave 2:

E|--3--5--3-----------------------------
B|--3--5--3--3--5--3--0-----3--5--0--0--
G|-----------2--4--2--0-----2--4--0--0--
D|--------------------------------------
A|--------------------------------------
E|--------------------------------------

Stave 3:

E|---------------------------------------------------
B|-------3-----5--6b5p3-----3----------3--5----------
G|--2/4-----4------------4--------4b5--------4b5--3--
D|---------------------------------------------------
A|---------------------------------------------------
E|---------------------------------------------------

Stave 4:

E|---------------------------------------
B|-------3-----5--6b5p3-----3------------
G|--2/4-----4------------4-----2--4b5r3--
D|---------------------------------------
A|---------------------------------------
E|---------------------------------------

http://www.guitartabcreator.com
Guitar Tab Creator is intended to store guitar tab created through the tool. It currently does not support in-line text editing. Any text you place in here will be lost. If you need to comment on your tab, please use the "Tab Notes" section located below.