Sound will begin in 5 seconds

HOTEL CALIFORNIA INTRO ACOUSTIC LIVE

Chords
01234567891011121314151617181920212223
E
B
G
D
A
E
B
0 1 2 3 4 5 6 7 8 9 10 11 12 13 14 15 16 17 18 19 20 21 22 23
Song Science #1: How Pros Use 6 Chords to Write Hit Songs
(/) Slide Up  (\) Slide Down  (h) Hammer On  (p) Pull Off  (b) Bend (r) Release (v) Vibrato

Stave 1:

E|--------------------------0--2--2h3p2p0--2--0----------------------------------0-----
B|--3-----------------2--3--------------------2-------3--2-----------------------0-----
G|--2--4--4h5p4\3--4--------------------------2--2h4--------2--2/4--2------------0-----
D|--0-----------------------------------------2------------------------4p2--1/2--2-----
A|--2-----------------------------------------0----------------------------------2-----
E|-------------------------------------------------------------------------------0-----

Stave 2:

E|-----------0-----------0-----------0-----------0--------7p0--------10p0--------7p0--------10p0--
B|--------0-----------0-----------0-----------0--------8----------8-----------8----------8--------
G|-----0-----------2-----------4-----------7--------9----------9-----------9----------9-----------
D|--2-----------4-----------5-----------9---------------------------------------------------------
A|------------------------------------------------------------------------------------------------
E|------------------------------------------------------------------------------------------------

Stave 3:

E|--------7p0--------10p0--------7p0--------10p0--------7p0--------10p0--------7p0--------10p0--
B|-----8----------8-----------8----------8-----------8----------8-----------8----------8--------
G|--9----------9-----------9----------9-----------9----------9-----------9----------9-----------
D|----------------------------------------------------------------------------------------------
A|----------------------------------------------------------------------------------------------
E|----------------------------------------------------------------------------------------------

Stave 4:

E|--------7p0--------10p0--------7--6--7--9--10--9--10--12/14--14--2--
B|-----8----------8-----------8------------------------------------3--
G|--9----------9-----------9---------------------------------------2--
D|-----------------------------------------------------------------4--
A|-----------------------------------------------------------------2--
E|--------------------------------------------------------------------

http://www.guitartabcreator.com
Guitar Tab Creator is intended to store guitar tab created through the tool. It currently does not support in-line text editing. Any text you place in here will be lost. If you need to comment on your tab, please use the "Tab Notes" section located below.