Sound will begin in 5 seconds

Phela Nasha

01234567891011121314151617181920212223
E
B
G
D
A
E
B
0 1 2 3 4 5 6 7 8 9 10 11 12 13 14 15 16 17 18 19 20 21 22 23
(/) Slide Up  (\) Slide Down  (h) Hammer On  (p) Pull Off  (b) Bend (r) Release (v) Vibrato

Stave 1:

E|--5--5--8--8--8--5-----8--8-----------5------------------------------
B|--------------------8--------6--6--8-----------6---------------------
G|-----------------------------------------7--7-----7--3/5--5--5-------
D|----------------------------------------------------------------5/7--
A|---------------------------------------------------------------------
E|---------------------------------------------------------------------

Stave 2:

E|-----------------------------------------------
B|-----------------------------------------------
G|--------------------5--------------------------
D|--5--5--7--8--7--5-----5--7--5--5--7--5--3--3--
A|-----------------------------------------------
E|-----------------------------------------------

Stave 3:

E|------------------------------------------------
B|-----10--8--6-----11--10--8--6--8--10--8--6--6--
G|--5------------5--------------------------------
D|------------------------------------------------
A|------------------------------------------------
E|------------------------------------------------

Stave 4:

E|--5-----------------------5--6--5--------
B|-----8--6--6--5--6--8--------------8--6--
G|-----------------------7-----------------
D|-----------------------------------------
A|-----------------------------------------
E|-----------------------------------------

Stave 5:

E|--5--------8/10--10-----5--6--5-----------------------------------5-----
B|-----8--6------------8-----------8--6--6--8--8/10--8--6--8--6--8-----8--
G|------------------------------------------------------------------------
D|------------------------------------------------------------------------
A|------------------------------------------------------------------------
E|------------------------------------------------------------------------

Stave 6:

E|----------------------8-----------------------8-----------------
B|--5h6-----6--6--5--6-----6--5--6--6--6--5--6-----6--5--7--7--7--
G|----------------------------------------------------------------
D|----------------------------------------------------------------
A|----------------------------------------------------------------
E|----------------------------------------------------------------

							http://www.guitartabcreator.com
Note:
Guitar Tab Creator is intended to store guitar tab created through the tool. It currently does not support in-line text editing. Any text you place in here will be lost. If you need to comment on your tab, please use the "Tab Notes" section located below.