Sound will begin in 5 seconds

Star Spangled Banner

01234567891011121314151617181920212223
E
B
G
D
A
E
B
0 1 2 3 4 5 6 7 8 9 10 11 12 13 14 15 16 17 18 19 20 21 22 23
Song Science #1: How Pros Use 6 Chords to Write Hit Songs
(/) Slide Up  (\) Slide Down  (h) Hammer On  (p) Pull Off  (b) Bend (r) Release (v) Vibrato

Stave 1:

E|-------------------------------------------------------------------------------------
B|----------------------9--7--------------------------9--7-----------------------------
G|--4-----------4--4/9--------9-----------------------------9--8--6--8--9--9--4--------
D|-----6-----6-------------------6--8--6--8/11--9--9-----------------------------6-----
A|--------7-------------------------------------------------------------------------7--
E|-------------------------------------------------------------------------------------

Stave 2:

E|----------------------------------------------------------------------------
B|-------------9--7--------------------------9--7-----------------------------
G|-----4--4/9--------9-----------------------------9--8--6--8--9--9--4--------
D|--6-------------------6--8--6--8/11--9--9-----------------------------6-----
A|-------------------------------------------------------------------------7--
E|----------------------------------------------------------------------------

Stave 3:

E|------------------------------------------------------------------------------
B|--9--9--9--10--10b10b10--9--7--9--9b9b10--9--7--------------------------------
G|------------------------------------------------9--8--6--8--9-----------------
D|---------------------------------------------------------------6--8--6--8/11--
A|------------------------------------------------------------------------------
E|------------------------------------------------------------------------------

Stave 4:

E|-----------------------------------------------------------------------------------
B|--------------------------7--9--10--9--7-----------------------------7--9--10--10--
G|-----9--9--9--8--6--6--6------------------9--9--11--9--8h9--------9----------------
D|--9---------------------------------------------------------9--9-------------------
A|-----------------------------------------------------------------------------------
E|-----------------------------------------------------------------------------------

Stave 5:

E|----------------------
B|-----7--9--9b7--------
G|--9-------------9h11--
D|----------------------
A|----------------------
E|----------------------

http://www.guitartabcreator.com
Guitar Tab Creator is intended to store guitar tab created through the tool. It currently does not support in-line text editing. Any text you place in here will be lost. If you need to comment on your tab, please use the "Tab Notes" section located below.