Sound will begin in 5 seconds

Lotus

Chords
01234567891011121314151617181920212223
E
B
G
D
A
E
B
0 1 2 3 4 5 6 7 8 9 10 11 12 13 14 15 16 17 18 19 20 21 22 23
(/) Slide Up  (\) Slide Down  (h) Hammer On  (p) Pull Off  (b) Bend (r) Release (v) Vibrato

Intro (x2)

E|-----------------------------------------
B|-----------------------------------------
G|-----------------------------------------
D|-----------5--7--------5--7--------------
A|-----7--7-----------7--------7--5--------
E|-----5-----------------------------5-----

Verse(x2)

E|--5v-----------------------------------------------------------------------------------------
B|---------5--8--10v-----3v-----5br5p3----------------------------3--5--8--5--8--10v-----------
G|---------------------------5--5-------5v--5--5v--2--4br4--2--5-------------------------------
D|---------------------------------------------------------------------------------------------
A|---------------------------------------------------------------------------------------------
E|---------------------------------------------------------------------------------------------

Solo 1(x2)

E|------------------------------------------------------------------------------------------------------------------------------------------------
B|--8-----8--8--8--8-----8--6--5h6-------/11-----11--11--11--11-----11--10------10----------8--8--8--6--5h6p5-----6--6--6--6--6--6--5-----5h6-----
G|----------------------------------7v--------------------------------------12------12v------------------------7-----------------------7----------
D|------------------------------------------------------------------------------------------------------------------------------------------------
A|------------------------------------------------------------------------------------------------------------------------------------------------
E|------------------------------------------------------------------------------------------------------------------------------------------------

Repeat Verse with Slides

E|--
B|--
G|--
D|--
A|--
E|--

Solo 2 (x2) ---- Play the same one tone up (Two Frets)

E|--
B|--
G|--
D|--
A|--
E|--

Bridge Rhythm (Alternative pick the notes shown)

E|----------------------------------------------------------------------
B|----------------------------------------------------------------------
G|-----5/x--6--0/-------------------------------------------------------
D|------------------5/x--2--0/------------------------------------------
A|-------------------------------5/x--2--0/---7/x--2--0/---5/x--2--0/---
E|----------------------------------------------------------------------

Bridge Lead Riff (Moves a tone down half way through, so move up two strings and play the same thing)

E|-----------------------5--------
B|--5--5--7--7--5--5--7-----7--5--
G|--------------------------------
D|--------------------------------
A|--------------------------------
E|--------------------------------

Bridge End solo(Repeat)

E|--------------------------------------------------------------------------------------------
B|-----------------5---------------------------------------8-----5----------------------------
G|-----5h7---p5h7-----7--5--7---------------5h7---p5---h7--------------7--5-------------------
D|-------------------------------x--2---------------------------------------------x--2--------
A|--------------------------------------------------------------------------------------------
E|--------------------------------------------------------------------------------------------

Improvised Solo (Key of G)----- (Use G minor Pentatonic scale)

E|--
B|--
G|--
D|--
A|--
E|--

Bridge End Solo (Repeat) ----- (Same as above played louder)

E|--
B|--
G|--
D|--
A|--
E|--

http://www.guitartabcreator.com
Guitar Tab Creator is intended to store guitar tab created through the tool. It currently does not support in-line text editing. Any text you place in here will be lost. If you need to comment on your tab, please use the "Tab Notes" section located below.