Sound will begin in 5 seconds

the boys are back in town outtro guitar 2

01234567891011121314151617181920212223
E
B
G
D
A
E
B
0 1 2 3 4 5 6 7 8 9 10 11 12 13 14 15 16 17 18 19 20 21 22 23
Song Science #1: How Pros Use 6 Chords to Write Hit Songs
(/) Slide Up  (\) Slide Down  (h) Hammer On  (p) Pull Off  (b) Bend (r) Release (v) Vibrato

Stave 1:

E|--------------------------------------------------------------------------------------
B|--------------------------------------------------------------------------------------
G|-----------1--1--------------1--1--------------1--3--------------1--3--3--3--3--1-----
D|--1--1--3--------1--1--1--3--------1--1--1--3--------1--1--1--3--------------------3--
A|--------------------------------------------------------------------------------------
E|--------------------------------------------------------------------------------------

Stave 2:

E|--------------------------------------------------------------------------
B|--------------------------------------------------------------------------
G|--6--------------6--6--------------6--9--------------6--7--7--7--7--6-----
D|-----7--7--7--9--------7--7--7--9--------7--7--7--9--------------------9--
A|--------------------------------------------------------------------------
E|--------------------------------------------------------------------------

Stave 3:

E|--------------------------------------------------------------------------------------------
B|----------------------------------------------10--------------------------------------------
G|--9------------------9--9------------------9----------------------9--11--11--11--11--9------
D|-----11--11--11--12--------11--11--11--12---------11--11--11--12------------------------12--
A|--------------------------------------------------------------------------------------------
E|--------------------------------------------------------------------------------------------

Stave 4:

E|--------------------------------------------------------------------------------------------------
B|--------------------------------------------------------------------------------------------------
G|--14------------------14--14------------------14--16------------------14--16--16--16--16--14------
D|------14--14--14--16----------14--14--14--16----------14--14--14--16--------------------------16--
A|--------------------------------------------------------------------------------------------------
E|--------------------------------------------------------------------------------------------------

Stave 5:

E|----------------------------------------------------------------------------------------------------
B|----14------------------14--14------------------14--17------------------14--15--15--15--15--14------
G|--------14--14--14--16----------14--14--14--16----------14--14--14--16--------------------------16--
D|----------------------------------------------------------------------------------------------------
A|----------------------------------------------------------------------------------------------------
E|----------------------------------------------------------------------------------------------------

Stave 6:

E|----------------------------
B|----15--15--15--15--14------
G|------------------------16--
D|----------------------------
A|----------------------------
E|----------------------------

Stave 7:

E|----------------------------
B|----15--15--15--15--14------
G|------------------------16--
D|----------------------------
A|----------------------------
E|----------------------------

Stave 8:

E|------------------------------
B|--15--15--15--15--14----------
G|----------------------16--14--
D|------------------------------
A|------------------------------
E|------------------------------

http://www.guitartabcreator.com
Guitar Tab Creator is intended to store guitar tab created through the tool. It currently does not support in-line text editing. Any text you place in here will be lost. If you need to comment on your tab, please use the "Tab Notes" section located below.