Sound will begin in 5 seconds

Train Home Chris Smither

01234567891011121314151617181920212223
E
B
G
D
A
E
B
0 1 2 3 4 5 6 7 8 9 10 11 12 13 14 15 16 17 18 19 20 21 22 23
Song Science #1: How Pros Use 6 Chords to Write Hit Songs
(/) Slide Up  (\) Slide Down  (h) Hammer On  (p) Pull Off  (b) Bend (r) Release (v) Vibrato

Stave 1:

E|-----------------------------------------------------------------------------------------------------
B|-----------------------------------------------------------------------------------------------------
G|--5/7/9--9--9--9--9--9--9h10p9p7--9--7--9--10--9--7--5--7-----5--9--7--5--4--2--1--2--2--2-----------
D|--------------------------------------------------------------------------------------------2--2--2--
A|-----------------------------------------------------------------------------------------------------
E|-----------------------------------------------------------------------------------------------------

Stave 2:

E|----------------------------------------------------------------------------------------------------
B|---------------------------------------------------------------------------------5h6p5--5-----------
G|--------5--7/9--9--9--9--9--9--9h10p9p7--9--7--5--5--7--7--7--7--5----------5h7------------7--5--4--
D|-----7--------------------------------------------------------------7--5h7--------------------------
A|--7-------------------------------------------------------------------------------------------------
E|----------------------------------------------------------------------------------------------------

Stave 3:

E|--------------5--5p4-----------------------------5p4--------------------------------------5p4------------
B|--------5--8----------6--5--------------5--5----------6--5-------------------------------------6p5-------
G|--5--7----------------------7--5-----7----------------------7--5-----5--7--7--5-----5---------------7p5--
D|----------------------------------7-------------------------------7--------------7-----------------------
A|---------------------------------------------------------------------------------------------------------
E|---------------------------------------------------------------------------------------------------------

Stave 4:

E|--------------------4--5--7--8p7p5h7--5--4-----------------------------------------------------------
B|--------------5--6--------------------------6--5-----------------------------------------------------
G|--------5--7--------------------------------------7--5--4-----2--------------------------1--2--4--5--
D|--6--7-----------------------------------------------------6-----2--2--2--2--2--2--2--3--------------
A|-----------------------------------------------------------------------------------------------------
E|-----------------------------------------------------------------------------------------------------

Stave 5:

E|-----------4--5--7--8-----8--11--10--8-------------------------
B|-----5--6-------------------------------12--9--8---------------
G|--7-----------------------------------------------10--9--7--5--
D|---------------------------------------------------------------
A|---------------------------------------------------------------
E|---------------------------------------------------------------

Stave 6:

E|--------------5--8--10--12--12--10--8--7--5--4-------------------------------------------------------
B|--------5--8------------------------------------6--6--6--6--5--5-------------------------------------
G|--5--7------------------------------------------------------------7--7/9--7--5--7/9--7--5--4h5p4-----
D|--------------------------------------------------------------------------------------------------7--
A|-----------------------------------------------------------------------------------------------------
E|-----------------------------------------------------------------------------------------------------

http://www.guitartabcreator.com
Guitar Tab Creator is intended to store guitar tab created through the tool. It currently does not support in-line text editing. Any text you place in here will be lost. If you need to comment on your tab, please use the "Tab Notes" section located below.