Sound will begin in 5 seconds

"terminal of tribute to" middle solo

01234567891011121314151617181920212223
E
B
G
D
A
E
B
0 1 2 3 4 5 6 7 8 9 10 11 12 13 14 15 16 17 18 19 20 21 22 23
Song Science #1: How Pros Use 6 Chords to Write Hit Songs
(/) Slide Up  (\) Slide Down  (h) Hammer On  (p) Pull Off  (b) Bend (r) Release (v) Vibrato

Stave 1:

E|--------------------------------------------------------------------------------------------
B|------------------7----------------------10b12--10b12--10--7h10p7---------------------------
G|---------7--9b10-----9--7--9b11r9--7-------------------------------7--7h9--9p7--9b11--7-----
D|--9p7h9-------------------------------9--------------------------------------------------9--
A|--------------------------------------------------------------------------------------------
E|--------------------------------------------------------------------------------------------

Stave 2:

E|---------7h10p7---------9h10h12--12b14r12p10---------12--------------------------------------
B|--10b12----------10--7------------------------12---------15p12------12h15--14--12------------
G|----------------------------------------------------------------14-----------------14--------
D|---------------------------------------------------------------------------------------------
A|---------------------------------------------------------------------------------------------
E|---------------------------------------------------------------------------------------------

Stave 3:

E|--7-----------------------------------------------------
B|-----10p7---------7-------------------------------------
G|-----------9--10-----10--9--7-----7--10--9--7-----------
D|-------------------------------9---------------9--7--9--
A|--------------------------------------------------------
E|--------------------------------------------------------

http://www.guitartabcreator.com
Guitar Tab Creator is intended to store guitar tab created through the tool. It currently does not support in-line text editing. Any text you place in here will be lost. If you need to comment on your tab, please use the "Tab Notes" section located below.