Sound will begin in 5 seconds

King Kong Goes to Tallahassee

Chords
01234567891011121314151617181920212223
E
B
G
D
A
E
B
0 1 2 3 4 5 6 7 8 9 10 11 12 13 14 15 16 17 18 19 20 21 22 23
Song Science #1: How Pros Use 6 Chords to Write Hit Songs
(/) Slide Up  (\) Slide Down  (h) Hammer On  (p) Pull Off  (b) Bend (r) Release (v) Vibrato

Stave 1:

E|---5-----5--5-----5--5--5--------2--2h3--2-3--0--------5--5--5-----------5--------3--5-----3--5--3-----
B|---7--7-----7--7-----7--7--------3-------3\2--1--------3--3--3-----3--------3-----3--3-----3--3--3-----
G|----------------------------------------------------------------------0--------0--3--3-----3--3--3-----
D|-------------------------------------------------------------------------------------------------------
A|-------------------------------------------------------------------------------------------------------
D|---0--------0--------0-----0--0--0-------0----0--0--5-----5-----5--------5--------5-----5-----5-----5--

Stave 2:

E|--5/6\5--3-------5-----------------------0h1p0--------5--3-----2-----------------------------------------
B|------------5/7-----7-----------------3---------3-----------------3--------3--------3--------3-----3--3--
G|-----------------------7--------------0------------6--------------------------2--------1--------0-----2--
D|--------------------------7---------------------------------------------0--4-----4--------3--2-----3--4--
A|-----------------------------0--1--2---------------0--------0--------------------------------------------
D|---------------------------------------------------------------------0--------------0--------------------

Stave 3:

E|--------------------5--5--5--5--7--5--------------2-----3--2--1--0-----------5-----5--5-----3--5--5--3--
B|--1--2-----------3--7--7--7--7--8--7--------------3--3-----3--2--1-----------3-----3--3-----3--3--3--3--
G|-----------2--4-----------------------------------------------------------------0-----------3--3--3--3--
D|--1--2--------------------------------------------------------------------------------------------------
A|--0-----0-----------------------------------------------------------------------------------------------
D|-----------0--------0--------0--------0--0--0--0--0--------0-----0--0--0--5--5-----5-----5--5-----5-----

Stave 4:

E|--5/6\5--3-------5-----------------------0h1p0--------5--3-----2-----------------------------------------
B|------------5/7-----7-----------------3---------3-----------------3-----3--------3--------3-----------3--
G|-----------------------7--------------0------------6--------------------------2--------1--------0-----2--
D|--------------------------7------------------------------------------------4--------3--------2-----3--4--
A|-----------------------------0--1--2---------------0--------0--------------------------------------------
D|---------------------------------------------------------------------0--------------0--------0--------0--

Stave 5:

E|-----0--------1--------2-----------7-----7--7--------7-----7--5-----5--3----3-------3--------6--6--6--6--
B|-----------------------------------------------------------------------3----3-------3--------5--5--5--5--
G|--0-----0--1-----1--2-----2-----7--7--7--7--7--------7--7-----5--5-----3h4--3h4-----4--------6--6--6--6--
D|--0-----------------0------------------------------------------------------------------------------------
A|---------------------------------------------------------------------------------------------------------
D|-----------0-----------------5-----5-----5-----5--5--5--------5--------5---------5-----5--4--4--4--4--4--

Stave 6:

E|--3--2h3p2--0--------------2-------------------------------------------0------------------------------0--
B|---------------3-----3-----------3-----3----------------------------------------2------------------------
G|--3--2---------4--------4-----------4--4-----------0h1--0h1--0h1--0h1--------1--2--------0h1p0-----------
D|---------------4--4--4-----------------4-----------2----2----2----2-------------------2---------2--------
A|---------------2-----2--------2--------2-------------------------------------------0---------------------
D|--4--4------------------------------------0--1--2--2----2----2----2-------2------------------------2-----

Stave 7:

E|--------------------------------------5--7---------------------------------------10--10--7-----
B|--------2-----2/3-----3/4-----4/5--7--------5b6r5p3-----------------------7--10-------------7--
G|-----------------------------------------------------4--2--0-----------7-----------------------
D|-----2-----2-------3-------4----------------------------------4-----7--------------------------
A|--0-------------0-------0-------0--------------------------------5-----------------------------
D|-----------------------------------------------------------------------------------------------

http://www.guitartabcreator.com
Guitar Tab Creator is intended to store guitar tab created through the tool. It currently does not support in-line text editing. Any text you place in here will be lost. If you need to comment on your tab, please use the "Tab Notes" section located below.