Sound will begin in 5 seconds

24 reusable blues licks

Chords
01234567891011121314151617181920212223
E
B
G
D
A
E
B
0 1 2 3 4 5 6 7 8 9 10 11 12 13 14 15 16 17 18 19 20 21 22 23
Song Science #1: How Pros Use 6 Chords to Write Hit Songs
(/) Slide Up  (\) Slide Down  (h) Hammer On  (p) Pull Off  (b) Bend (r) Release (v) Vibrato

Stave 1:

E|--------------------------------------------------------8b10r8--5v---------------------------------------
B|--------------------------------------------------------------------8--5---------------------------------
G|--2--2-----4b5-------------2--2--2-----4b5--2--4--------------------------8--7h8p7-----5--7--5-----------
D|--------4-------------2/4-----------4-------------4---------------------------------7--------------------
A|---------------------------------------------------------------------------------------------------------
E|---------------------------------------------------------------------------------------------------------

Stave 2:

E|------------10--12--11--10-------------------------------------10--12--11--10------12-------------------
B|--------10------------------13--12--11--10-----------------10------------------13------13--10-----------
G|--5/11--------------------------------------13--12--10/11-----------------------------------------------
D|--------------------------------------------------------------------------------------------------------
A|--------------------------------------------------------------------------------------------------------
E|--------------------------------------------------------------------------------------------------------

Stave 3:

E|----------5--------8--5------------------------------------------------7-------7-----------5--7--------
B|-------5-----8--5--------8p5--------------5----5------------------8b9-----8b9---------5/7--------------
G|--7b8-------------------------7b8r7p5-----5h7--5h7p5-----5------------------------9v-------------------
D|---------------------------------------7--------------7------------------------------------------------
A|-------------------------------------------------------------------------------------------------------
E|-------------------------------------------------------------------------------------------------------

Stave 4:

E|--8p7p5-----5-------------------------5--------8b9--8b9--5---------------------------------------------
B|---------7----------------------5--7-----8--5--------------------5-------------------------------------
G|---------------7b8r7p5-----5/6------------------------------5/6-----6--------7b9--5--7-----5-----------
D|----------------------------------------------------------------------------------------7-----7--5-----
A|-----------------------------------------------------------------------7----------------------------7--
E|-------------------------------------------------------------------------------------------------------

Stave 5:

E|--------------------------0---0---0------0---0---0------0---0---0-------------------------------------
B|--------------------------10--10--10-----10--10--10-----10--10--10----------10-----10-----8-----------
G|-----5--7--7b9--7b9r7--5--9---9---9------9---9---9------9---9---9---7p5---------9------9--------------
D|--7----------------------------------------------------------------------7----------------------------
A|------------------------------------------------------------------------------------------------------
E|------------------------------------------------------------------------------------------------------

Stave 6:

E|------------------------------------------------------13b15--12--11--10--8--5--------------------------
B|--8--5------------5--------8--5-----------------5--5---------------------------5--8--8--8--8--7--6--5--
G|--------7b8p7--5-----5-----------7p8r7--5--7b9------------------------------------9--9--9--9--8--7--6--
D|-------------------------------------------------------------------------------------------------------
A|-------------------------------------------------------------------------------------------------------
E|-------------------------------------------------------------------------------------------------------

Stave 7:

E|--12--12--12--14--15--16-----10--10--10--10--12--13--14-----8--5-----8--5-----8--5---------------------
B|--12--12--12--13--14--15-----10--10--10--10--11--12--13-----------5--------5--------5--8--5------------
G|--13--13--13--14--15--16-----11--11--11--11--12--13--14--------------------------------------7b8r7-----
D|-------------------------------------------------------------------------------------------------------
A|-------------------------------------------------------------------------------------------------------
E|-------------------------------------------------------------------------------------------------------

Stave 8:

E|--------------------------------------------------------------------8-------------5--------------------
B|--------------------8---------------8b10--------10--10--8-----8-------------5--7-----7--5--------------
G|--5--7--5v-----8/9-----9p8h9--------------5----------------9-----9-----5/6-----------------6-----------
D|---------------------------------------------7------------------------------------------------7--------
A|-------------------------------------------------------------------------------------------------------
E|-------------------------------------------------------------------------------------------------------

Stave 9:

E|----------------8---------------------10------10--------------------------12--11--10h11p10------12------
B|--10-----8--10----------------10--12------12------12------------------10--------------------13--13------
G|------9----------------10h11--------------------------10----------10--------------------------------14--
D|-------------------12-------------------------------------12--12----------------------------------------
A|--------------------------------------------------------------------------------------------------------
E|--------------------------------------------------------------------------------------------------------

Stave 10:

E|--12------12--------------12------12--------------5h7--5h7--6p5----------------------5--------3--------
B|--13------13--------------13------13--------------5----5---------8--5-------5--6--7-----7--5-----5-----
G|------14----------12--14------14------14--14v--------------------------5/7-----------------------------
D|--------------14---------------------------------------------------------------------------------------
A|-------------------------------------------------------------------------------------------------------
E|-------------------------------------------------------------------------------------------------------

Stave 11:

E|-----2--------0--------5--------5--------5-----5-------5------------------------------------------------
B|--3-----3--1-----1--8-----8--7-----7--6-----6--5--5/7-----7--5v-----------------------------------------
G|--------------------------------------------------------------------------------------------------------
D|--------------------------------------------------------------------------------------------------------
A|--------------------------------------------------------------------------------------------------------
E|--------------------------------------------------------------------------------------------------------

Stave 12:

E|--12b14--12--12b14----------------------------------------
B|--------------------12b13--10------10------10------12b13--
G|-------------------------------11------11------11---------
D|----------------------------------------------------------
A|----------------------------------------------------------
E|----------------------------------------------------------

http://www.guitartabcreator.com
Guitar Tab Creator is intended to store guitar tab created through the tool. It currently does not support in-line text editing. Any text you place in here will be lost. If you need to comment on your tab, please use the "Tab Notes" section located below.