oye mujer

Chords

01234567891011121314151617181920212223
E
B
G
D
A
E
B
0 1 2 3 4 5 6 7 8 9 10 11 12 13 14 15 16 17 18 19 20 21 22 23
(/) Slide Up  (\) Slide Down  (h) Hammer On  (p) Pull Off  (b) Bend (r) Release (v) Vibrato

Stave 1:

E|--12--12------12----------------12------12--10--10------10--
B|----------12------------12--12------12--------------12------
G|------------------------------------------------------------
D|------------------------------------------------------------
A|------------------------------------------------------------
E|------------------------------------------------------------

Stave 2:

E|---------------------------------------------------------------------------------------------------------------------
B|---------------------------------------------------------------------------------------------------------------------
G|------------------7h9--9-----7h9--7-----7\1-----7-------------------------------------------------7------------------
D|--9--9/7/9-----9----------9----------9-------------10--10--10--10\9/10-----9--7--7--7--5--7--7-----7/9--7\5--4--2--
A|---------------------------------------------------------------------------------------------------------------------
E|---------------------------------------------------------------------------------------------------------------------

							http://www.guitartabcreator.com
Instruments
{"strings":[[[12,12,".",12,"_","_",".",".",12,".",12,10,10,".",10],[".",".",12,".","_","_",12,12,".",12,".",".",".",12,"."],[".",".",".",".","_","_",".",".",".",".",".",".",".",".","."],[".",".",".",".","_","_",".",".",".",".",".",".",".",".","."],[".",".",".",".","_","_",".",".",".",".",".",".",".",".","."],[".",".",".",".","_","_",".",".",".",".",".",".",".",".","."]],[[".",".",".",".",".","_",".",".",".",".",".",".",".",".",".",".",".",".",".","_","_","_","_",".",".",".",".",".","_","_",".",".",".",".",".",".",".",".",".",".",".",".",".",".",".",".",".","."],[".",".",".",".",".","_",".",".",".",".",".",".",".",".",".",".",".",".",".","_","_","_","_",".",".",".",".",".","_","_",".",".",".",".",".",".",".",".",".",".",".",".",".",".",".",".",".","."],[".",".",".",".",".","_",".",".",7,"h",9,9,".",7,"h",9,7,".",7,"\\",1,"_",7,".",".",".",".",".","_","_",".",".",".",".",".",".",".",".",".",7,".",".",".",".",".",".",".","."],[9,9,"/",7,"/",9,".",9,".",".",".",".",9,".",".",".",".",9,".","_","_","_","_",10,10,10,10,"\\",9,"/",10,".",9,7,7,7,5,7,7,".",7,"/",9,7,"\\",5,4,2],[".",".",".",".",".","_",".",".",".",".",".",".",".",".",".",".",".",".",".","_","_","_","_",".",".",".",".",".","_","_",".",".",".",".",".",".",".",".",".",".",".",".",".",".",".",".",".","."],[".",".",".",".",".","_",".",".",".",".",".",".",".",".",".",".",".",".",".","_","_","_","_",".",".",".",".",".","_","_",".",".",".",".",".",".",".",".",".",".",".",".",".",".",".",".",".","."]]],"numberofstrings":6,"notes":["E","B","G","D","A","E","B"],"capo":0,"stringnotes":["E4","B3","G3","D3","A2","E2"],"comments":["Stave 1:","Stave 2:"],"timing":[["W","W","W","W",null,null,"W","W","W","W","W","W","W","W",null,"W","W"],["W","W","W","W",null,null,null,"W","W","W","W","W","W","W","W","W","W","W",null,null,null,null,null,null,"W","W","W","W","W","W","W","W","W","W","W","W","W","W","W","W","W","W","W","W","W","W"]],"timingvisible":false,"tabcounter":48,"stave":1,"totalstaves":2,"instrument":"6guitar","selectedtuning":"6_standard","version":"13"}

Member for

6 months 2 weeks
Submitted by Mr SoloDolo on Tue, 2020-09-29 11:27