Sound will begin in 5 seconds

Shake Away - Michael Patrick Kelly - 2

01234567891011121314151617181920212223
E
B
G
D
A
E
B
0 1 2 3 4 5 6 7 8 9 10 11 12 13 14 15 16 17 18 19 20 21 22 23
Song Science #1: How Pros Use 6 Chords to Write Hit Songs
(/) Slide Up  (\) Slide Down  (h) Hammer On  (p) Pull Off  (b) Bend (r) Release (v) Vibrato

Stave 1:

E|-----------
B|-----------
G|--------9--
D|-----9-----
A|--7--------
E|-----------

Stave 2:

E|-----------
B|-----------
G|--------9--
D|-----9-----
A|--6--------
E|-----------

Stave 3:

E|--------
B|--------
G|-----9--
D|--9-----
A|--------
E|--------

Stave 4:

E|-----------
B|-----------
G|--------9--
D|-----9-----
A|-----------
E|--9--------

Stave 5:

E|-----------
B|-----------
G|--------9--
D|-----9-----
A|-----------
E|--7--------

Stave 6:

E|--------
B|--------
G|-----9--
D|--9-----
A|--------
E|--------

Stave 7:

E|-----------
B|-----------
G|--------9--
D|-----9-----
A|-----------
E|--7--------

Stave 8:

E|-----------
B|-----------
G|--------9--
D|-----9-----
A|-----------
E|--7--------

Stave 9:

E|-----------
B|-----------
G|--------9--
D|-----9-----
A|-----------
E|--8--------

Stave 10:

E|-----------
B|-----------
G|--------6--
D|-----6-----
A|--4--------
E|-----------

Stave 11:

E|--------------
B|--------------
G|-----8--------
D|--------9-----
A|-----------9--
E|--7-----------

Stave 12:

E|--------------
B|--------------
G|-----------6--
D|--------6-----
A|--4-----------
E|-----5--------

Stave 13:

E|--------------
B|--------------
G|-----6--------
D|--------7-----
A|-----------7--
E|--5-----------

Stave 14:

E|-------------
B|-------------
G|----------9--
D|-------9-----
A|----7--------
E|-------------

Stave 15:

E|-----------------
B|-----------------
G|-------------10--
D|----------9------
A|----6------------
E|-------7---------

Stave 16:

E|----------------
B|----------------
G|-------------6--
D|----------6-----
A|----4-----------
E|-------5--------

Stave 17:

E|--------------
B|--------------
G|-----6--------
D|--------7-----
A|-----------7--
E|--5-----------

Stave 18:

E|--------------
B|--------------
G|-----8--------
D|--------9-----
A|-----------9--
E|--7-----------

http://www.guitartabcreator.com
Guitar Tab Creator is intended to store guitar tab created through the tool. It currently does not support in-line text editing. Any text you place in here will be lost. If you need to comment on your tab, please use the "Tab Notes" section located below.