Sound will begin in 5 seconds

Madonna Pt.1

Chords
01234567891011121314151617181920212223
E
B
G
D
A
E
B
0 1 2 3 4 5 6 7 8 9 10 11 12 13 14 15 16 17 18 19 20 21 22 23
Song Science #1: How Pros Use 6 Chords to Write Hit Songs
(/) Slide Up  (\) Slide Down  (h) Hammer On  (p) Pull Off  (b) Bend (r) Release (v) Vibrato

Stave 1:

E|--------------------------------------------------------------------------------------------------
B|--------------------------------------------------------------------------------------------------
A|--------1--0--1-----1-----------1--0--1-----1-----------1--0--1-----1-----------3--0--3-----3-----
D|-----0-----------0-----0-----0-----------0-----0-----3-----------3-----3-----5-----------5-----5--
G|--0-----------------------0-----------------------3-----------------------5-----------------------
C|--------------------------------------------------------------------------------------------------

Stave 2:

E|--------------------------------------------------------------------------------------------------
B|--------------------------------------------------------------------------------------------------
A|--------1-----5--3--1--3--5-----------------------------1--0--1-----1-----------------------------
D|-----0-----0--------------------5-----5-----3--------3-----------3-----3--------1-----------0-----
G|--0--------------------------0-----0-----0-----0--3--------------------------3-----3-----5-----5--
C|--------------------------------------------------------------------------3-----------5-----------

Stave 3:

E|-----------------------------------------------------------------------
B|-----------------------------------------------------------------------
A|--------------0--1--------------0--------------------------------------
D|--0--0--0--0--0-----0--0--0--0--0--0--1--1-----3--3--3--3--3-----------
G|--0--0--0--0--0-----0--0--0--0--0-----3--3--3--5--5--5--5--5--5--3--2--
C|--------------------------------------3--3-----5--5-----5--5-----------

Stave 4:

E|--------------------------------------------------------------------------------------------------
B|--------------------------------------------------------------------------------------------------
A|--------------------------------------------------------------------------------------------------
D|-----------5--7--5-----------------5--7--5--------------------------------------------------------
G|--0--3--7-----------7--3--0--3--7-----------7--3-----------3--7--5--3--5-----------2--5--3--2--3--
C|--------------------------------------------------0--3--7-----------------0--2--5-----------------

http://www.guitartabcreator.com
Guitar Tab Creator is intended to store guitar tab created through the tool. It currently does not support in-line text editing. Any text you place in here will be lost. If you need to comment on your tab, please use the "Tab Notes" section located below.