Sound will begin in 5 seconds

Ratt I'm Insane Solo

01234567891011121314151617181920212223
E
B
G
D
A
E
B
0 1 2 3 4 5 6 7 8 9 10 11 12 13 14 15 16 17 18 19 20 21 22 23
Song Science #1: How Pros Use 6 Chords to Write Hit Songs
(/) Slide Up  (\) Slide Down  (h) Hammer On  (p) Pull Off  (b) Bend (r) Release (v) Vibrato

Stave 1:

E|---------4-6-7-4-6-7-10-7-9----7-9-12-9-11----9-11-14-11-13----11-13-15-13-14----13-14-17-14-16----14-
B|---4-6-7--------------------11-------------13---------------14----------------16----------------18----
G|-6----------------------------------------------------------------------------------------------------
D|------------------------------------------------------------------------------------------------------
A|------------------------------------------------------------------------------------------------------
E|------------------------------------------------------------------------------------------------------

Stave 2:

E|-14-16-19-16-18----16-18-19-16-------19----------19-------------------19-15-
B|----------------20-------------19----------19-------16-------16----16-------
G|----------------------------------20----20----20-------19-16----19----------
D|----------------------------------------------------------------------------
A|----------------------------------------------------------------------------
E|----------------------------------------------------------------------------

Stave 3:

E|----------------------------------------------------
B|-12-16-12-16-17-16-12-16-12-11-12-11----11----------
G|-------------------------------------13----13-11-13-
D|----------------------------------------------------
A|----------------------------------------------------
E|----------------------------------------------------

http://www.guitartabcreator.com
Guitar Tab Creator is intended to store guitar tab created through the tool. It currently does not support in-line text editing. Any text you place in here will be lost. If you need to comment on your tab, please use the "Tab Notes" section located below.