11121

01234567891011121314151617181920212223
E
B
G
D
A
E
B
0 1 2 3 4 5 6 7 8 9 10 11 12 13 14 15 16 17 18 19 20 21 22 23
(/) Slide Up  (\) Slide Down  (h) Hammer On  (p) Pull Off  (b) Bend (r) Release (v) Vibrato

Stave 1:

E|------------------------------------------------------------------------------------------------------------------------------------------------
B|-----------------------8--6-----------------6-----------------------------------------------8--6-----------------8------------------------------
G|--7--7--7--5--7-----7--------7-----7--7--7-----7-----7--5--------------7--7--7--5--7-----7--------7-----7--7--7-----7-----7--5-----5\2--------
D|-----------------------------------------------------------7--------------------------------------------------------------------7--0----------
A|--------------------------------------------------------------5---------------------------------------------------------------------------------
E|------------------------------------------------------------------------------------------------------------------------------------------------

Stave 2:

E|-------------------------------------------------------------------
B|-------------------------------------------------------------------
G|-------------------------------------------------------------------
D|--7--7--7\5--7-----7--7--7/10--7-----7--7--7/12--7-----7--5--------
A|-------------------------------------------------------------7-----
E|----------------------------------------------------------------5--

							http://www.guitartabcreator.com
Chords

Instruments
{"strings":[[[".",".",".",".","_",".",".",".",".",".","_",".",".",".",".",".","_",".",".",".",".","_","_",".",".",".",".",".","_",".",".",".",".","_",".",".",".",".",".","_",".",".",".","_",".",".","_","_"],[".",".",".",".","_",".",".",8,6,".","_",".",".",".",6,".","_",".",".",".",".","_","_",".",".",".",".",".","_",".",8,6,".","_",".",".",".",8,".","_",".",".",".","_",".",".","_","_"],[7,7,7,5,7,".",7,".",".",7,"_",7,7,7,".",7,"_",7,5,".",".","_","_",7,7,7,5,7,"_",7,".",".",7,"_",7,7,7,".",7,"_",7,5,".",5,"\\",2,"_","_"],[".",".",".",".","_",".",".",".",".",".","_",".",".",".",".",".","_",".",".",7,".","_","_",".",".",".",".",".","_",".",".",".",".","_",".",".",".",".",".","_",".",".",7,0,".",".","_","_"],[".",".",".",".","_",".",".",".",".",".","_",".",".",".",".",".","_",".",".",".",5,"_","_",".",".",".",".",".","_",".",".",".",".","_",".",".",".",".",".","_",".",".",".","_",".",".","_","_"],[".",".",".",".","_",".",".",".",".",".","_",".",".",".",".",".","_",".",".",".",".","_","_",".",".",".",".",".","_",".",".",".",".","_",".",".",".",".",".","_",".",".",".","_",".",".","_","_"]],[[".",".",".",".",".",".","_",".",".",".",".",".",".","_",".",".",".",".",".",".","_",".",".",".","."],[".",".",".",".",".",".","_",".",".",".",".",".",".","_",".",".",".",".",".",".","_",".",".",".","."],[".",".",".",".",".",".","_",".",".",".",".",".",".","_",".",".",".",".",".",".","_",".",".",".","."],[7,7,7,"\\",5,7,"_",7,7,7,"/",10,7,"_",7,7,7,"/",12,7,"_",7,5,".","."],[".",".",".",".",".",".","_",".",".",".",".",".",".","_",".",".",".",".",".",".","_",".",".",7,"."],[".",".",".",".",".",".","_",".",".",".",".",".",".","_",".",".",".",".",".",".","_",".",".",".",5]]],"numberofstrings":6,"notes":["E","B","G","D","A","E","B"],"capo":0,"stringnotes":["E4","B3","G3","D3","A2","E2"],"comments":["Stave 1:","Stave 2:"],"timing":[["W","W","W","W",null,"W","W","W","W",null,"W","W","W","W","W",null,"W","W","W","W",null,null,"W","W","W","W","W",null,"W","W","W","W",null,"W","W","W","W","W","W","W","W","W","W","W","W","W",null,"W"],["W","W","W",null,"W","W",null,"W","W","W",null,"W","W",null,"W","W","W",null,"W","W",null,"W","W","W","W"]],"timingvisible":false,"tabcounter":25,"stave":1,"totalstaves":2,"instrument":"6guitar","selectedtuning":"6_standard","version":"13"}

Member for

1 week 3 days
Submitted by moshi on Tue, 2021-01-12 05:49