Sound will begin in 5 seconds

SophomoreRiffs

Chords
01234567891011121314151617181920212223
E
B
G
D
A
E
B
0 1 2 3 4 5 6 7 8 9 10 11 12 13 14 15 16 17 18 19 20 21 22 23
Song Science #1: How Pros Use 6 Chords to Write Hit Songs
(/) Slide Up  (\) Slide Down  (h) Hammer On  (p) Pull Off  (b) Bend (r) Release (v) Vibrato

Stave 1:

E|-----------------------------------------------------------------------------------------------------------------------------------------------------
B|--------------0--0--0-----------0--0--0-----------0--0--0-----------0--0--0-----------0--0--0-----------0--0--0--------------------------------------
G|--------------0--0--0-----------0--0--0-----------0--0--0-----------0--0--0-----------0--0--0-----------0--0--0--0--0--0--0--0--0--0--0--0--0--0--0--
D|--------------4--4--4-----------4--4--4-----------4--4--4-----------4--4--4-----------4--4--4-----------4--4--4--6--6--6--6--6--6--3--3--3--3--3--3--
A|-----2--2--2--2--2--2--2--2--2--2--2--2--2--2--2--2--2--2--5--5--5--5--5--5--2--2--2--2--2--2--2--2--2--2--2--2--6--6--6--6--6--6--3--3--3--3--3--3--
E|-----0--0--0-----------3--3--3-----------0--0--0-----------3--3--3-----------0--0--0-----------3--3--3-----------4--4--4--4--4--4--1--1--1--1--1--1--

Stave 2:

E|-----------------------------------------------------------------------------------------------------------------------------------------------------------
B|-----------------------------------------------------------------------------------------------------------------------------------------------------------
G|--------------------------------------------------------------------------------------3--3--3--3-----------------------------------------------------------
D|--------------------------------------------------------------------------2--2--2--2-----------------------------------------------------------------------
A|--------------------1--1--1--1--1--1--------------------1--1--1--1--1--1--------------------------------------------1--1--1--1--1--1--2--4--5--3--3--3--3--
E|--0--0--0--0--0--0--------------------0--0--0--0--0--0--------------------------------------------0--0--0--0--0--0--------------------0--2--3--1--1--1--1--

Stave 3:

E|--------------------------------------------
B|--------------------------------------------
G|--------------4--3--3--------------4--3-----
D|--------5--4-----------------5--4--------4--
A|--7--6-----------------7--6-----------------
E|--------------------------------------------

Stave 4:

E|--------------------------------------------------------0-----------------------------------------------------------------------------------------
B|-----------1-----------------1-----------------1-----------1-----1-----------------0-----------------0-----------------0--------3--------0--------
G|--------0-----0-----------0-----0-----------0-----0-----------0-----0-----------5-----5-----------5-----5-----------5-----5--------5--------5-----
D|-----3-----------3-----3-----------3-----3-----------3-----------------3-----2-----------2-----2-----------2-----2-----------2--------2--------2--
A|--1-----------------1-----------------1-----------------------------------0-----------------0-----------------0-----------------------------------
E|--------------------------------------------------------------------------------------------------------------------------------------------------

Stave 5:

E|-----------------------------------------------------------0--------------------------------------------------------------
B|-----------------------------0--------------------------------------------0-----------------------------0-----------------
G|--------------2-----------2-----------------2-----------2--------------------------------0-----------------------------0--
D|--------0--------------0--------------0--------------0--------------0--------------0--------------0--------------0--------
A|-----4-----4--------4--------------4-----4--------4--------------3-----3--------3-----3--------3-----3--------3-----3-----
E|--2--------------2--------------2--------------2--------------1--------------1--------------1--------------1--------------

Stave 6:

E|--------------------------------------------------------------------------------------------------
B|--------------------------------------0-----------------------------------------------0-----------
G|--------5-----5-----5-----5-----5--------5--------------5-----5-----5-----5-----5--------5--------
D|-----2-----2-----2-----2-----2-----2--------2--------3-----3-----3-----3-----3-----3--------3-----
A|--0--------------------------------------------0--1--------------------------------------------1--
E|--------------------------------------------------------------------------------------------------

Stave 7:

E|-------------------------------------------------------------------------------------0--
B|--------------0--------------------7--------7h8--------------0--------------------7-----
G|--------0--------0-----0--------0-----0----------------0--------0--------------4--------
D|-----5-----5--------5--------5-----------5----------5-----5-----------5-----5-----------
A|--7-----------------------6----------------------7-----------------6-----3--------------
E|----------------------------------------------------------------------------------------

Stave 8:

E|------------------------------------------------------------------------------------------------
B|--------------0--------------------7--------7h8--------------0--------------------0-------------
G|--------0--------0-----0--------0-----0----------------0--------0-----0--------0-----0----------
D|-----5-----5--------5--------5-----------5----------5-----5--------5--------4-----------4-------
A|--7-----------------------6----------------------3-----------------------2----------------------
E|-------------------------------------------------------------------------------------------2h3--

Stave 9:

E|--------------0-----------------------0-----------------------0-----------------------0-----------
B|-----------4-----4-----------------4-----4-----------------1-----1-----------------1-----1--------
G|--------1-----------1-----------1-----------1-----------0-----------0-----------0-----------0-----
D|-----2-----------------2-----2-----------------2-----2-----------------2-----2-----------------2--
A|--4-----------------------4-----------------------3-----------------------3-----------------------
E|--------------------------------------------------------------------------------------------------

Stave 10:

E|--------------0-----------------------0-----------------------0-----------------------0--
B|-----------4-----4-----------------4-----4-----------------7-----7-----------------7-----
G|--------1-----------1-----------1-----------1-----------4-----------4-----------4--------
D|-----2-----------------2-----2-----------------2-----5-----------------5-----5-----------
A|--4-----------------------4-----------------------7-----------------------6--------------
E|-----------------------------------------------------------------------------------------

Stave 11:

E|--------------------------------------0-----------------------------------------0-----
B|-----------5--------------------5-----6--------------5--------------------0-----0-----
G|--------8-----8--------------8-----8--9-----------8-----8--------------3-----3--3-----
D|-----7-----------7--------7-----------8--------7-----------7--------2-----------2-----
A|--6-----------------0--6--------------7--0--6-----------------0--1--------------1--0--
E|--------------------------------------------------------------------------------------

Stave 12:

E|--------------------------------------------------------------------------
B|--------------------------------------------------------------------------
G|--------------------------------------------------------------------4-----
D|--------3-----3-----------------------------3-----2-----------3--------3--
A|-----7-----7-----7--------3-----3--------7-----7-----6-----2-----2--------
E|--0-----------------0--7-----7-----7--0-----------------1-----------------

Stave 13:

E|--
B|--
G|--
D|--
A|--
E|--

http://www.guitartabcreator.com
Guitar Tab Creator is intended to store guitar tab created through the tool. It currently does not support in-line text editing. Any text you place in here will be lost. If you need to comment on your tab, please use the "Tab Notes" section located below.