Sound will begin in 5 seconds

Riffs

01234567891011121314151617181920212223
E
B
G
D
A
E
B
0 1 2 3 4 5 6 7 8 9 10 11 12 13 14 15 16 17 18 19 20 21 22 23
Song Science #1: How Pros Use 6 Chords to Write Hit Songs
(/) Slide Up  (\) Slide Down  (h) Hammer On  (p) Pull Off  (b) Bend (r) Release (v) Vibrato

Stave 1:

E|--------------------------------------------------------------------------
B|-----------0-----------------0-----------------0-----------------0--------
G|--2-----------2-----2-----------2-----0-----------0-----0-----------0-----
D|-----4-----------4-----4-----------4-----4-----------4-----4-----------4--
A|--------2-----------------2-----------------2-----------------2-----------
E|--------------------------------------------------------------------------

Stave 2:

E|--------------
B|--------------
G|--------------
D|--4--1--3--1--
A|--8--5--5--3--
E|--6--3--5--3--

Stave 3:

E|--------------------------------------------------------------------------
B|-----------0-----------------6-----------------0-----------------0--------
G|--------0-----0-----------7-----7-----------3-----3-----------3-----3-----
D|-----4-----------4-----7-----------7-----1-----------1-----1-----------1--
A|--2-----------------5-----------------1-----------------1-----------------
E|--------------------------------------------------------------------------

Stave 4:

E|------------------
B|------------------
G|------------------
D|--5--4--5--8---4--
A|--7--6--7--10--6--
E|--7--6--7--10--6--

Stave 5:

E|--------------------------------------------------------------------------------------------------
B|--------------0-----------------------0-----------------------0-----------------------0-----------
G|--6-----6--------6-----6-----6-----------6--------0-----0--------0-----0-----0-----------0--------
D|-----4-----4--------4-----4-----4-----------4--------4-----4--------4-----4-----4-----------4-----
A|-----------------------------------2-----------2-----------------------------------2-----------2--
E|--------------------------------------------------------------------------------------------------

Stave 6:

E|--------------------
B|--------------------
G|--------------------
D|--0--6--0--0--5--0--
A|--6--6--6--6--6--6--
E|--6--4--3--6--8--3--

Stave 7:

E|--------------------------
B|--------------------------
G|--------------------------
D|--2--4--1--0--2--4--7--3--
A|--2--6--3--2--2--6--9--5--
E|--0--6--3--2--0--6--9--5--

Stave 8:

E|-------3-------3-----1-----1--
B|-------3-------3-----1-----1--
G|-------3-------3-----1-----1--
D|--3h5--5--3h5--5-----5-----5--
A|--5-------5-------3-----3-----
E|--3-------3-------1-----1-----

Stave 9:

E|----------------------------------------------------------------------------
B|----------------------------------------------------------------------------
G|-------------------------------------------------------------------1-----0--
D|--------1--0--------------1--0--3--3--------1--0--------------1h3-----3-----
A|-----3--------3--1-----3--------5--5-----3--------3--1-----3----------------
E|--3-----------------3-----------5--5--3-----------------1-------------------

Stave 10:

E|--------------------
B|--------------------
G|--------------------
D|--5--3--6--3--5--0--
A|--5--5--5--6--6--6--
E|--3--3--3--4--4--4--

Stave 11:

E|-----------------
B|-----------------
G|--0--------0-----
D|--0--3--5--6--5--
A|--6--3--5--8--6--
E|--3--1--3--8--8--

Stave 12:

E|--7-----5-----
B|--7-----5-----
G|--7--0--5--0--
D|--9--9--9--9--
A|--9--9--7--7--
E|--7--7--5--5--

Stave 13:

E|-----------------------------------------------------------------------
B|-----------------------------------------------------------------------
G|--3--5--3--0--3--5--3--0--3--5--5--3--5--3--0--3--5--3--0--3--5--3--3--
D|-----------------------------------------------------------------------
A|-----------------------------------------------------------------------
E|-----------------------------------------------------------------------

Stave 14:

E|--------------------------------------------------------------------
B|--------------------------------6--------------------------4--6--4--
G|--3--5--3--0--3--5--3--0--3--5-----3--5--3--0--3--5--3--0-----------
D|--------------------------------------------------------------------
A|--------------------------------------------------------------------
E|--------------------------------------------------------------------

Stave 15:

E|------------------------------------------------------------------------------------------------------------------
B|------------------------------------------------------------------------------------------------------------------
G|------------------------------------------------------------------------------------------------------------------
D|---------0---------0------0---------0---------0------0----------0----------0------0----------0----------0------0--
A|-----11--------11-----11--------11--------11-----11---------11---------11-----11---------11---------11-----11-----
E|--9---------9----------------9---------9----------------12---------12----------------11---------11----------------

Stave 16:

E|--------------------------------------
B|--------------------------------------
G|--------------------------------------
D|--------------------------------------
A|--3--5--6--5--6--8--3--5--6--8--6--5--
E|--3--3--3--4--4--4--3--3--3--6--6--6--

Stave 17:

E|--------------------------------------------------------------
B|--------------------------------------------------------------
G|-----------------------------------------------------------0--
D|--0--------------0-----------3--0--------------0--------------
A|--------------1-----------------------------1-----------------
E|-----0--3--1--------0--5--1--------0--3--0--------0--5--0-----

Stave 18:

E|-----------------------------
B|-----------------------------
G|-----------------------------
D|--5--3--2--3--2--2--3--0-----
A|--5--------------3-----1--0--
E|-----------------------------

Stave 19:

E|-----------------------------------------------------------------------
B|-----------------------------------------------------------------------
G|-----------7-----------------7-----------------7--------------7--------
D|--------0-----0-----------0-----0-----------0-----0--------0-----0-----
A|-----5-----------5-----5-----------5-----5--------------5-----------5--
E|--0-----------------0-----------------8--------------8-----------------

Stave 20:

E|----------------------------------------------------------0--
B|-------------------------------------------------------------
G|-------------------------------------------------------------
D|--------1--------1--------1--------1---------7---------7-----
A|-----5--------5--------5--------5--------12--------12--------
E|--0--------0--------1--------1--------0---------0------------

Stave 21:

E|----------------------------------------------
B|----------------------------------------------
G|----------0----------0------------------0-----
D|----------0----------0------------------3--0--
A|-------3----------6----------3-------3--------
E|--3h5--------6h8--------3h5-----8\4-----------

Stave 22:

E|--------------------------------------------------------------------------------------------------
B|--0-----------------------0-----------------------0-----------------------0-----------------------
G|-----3--------3--------------3--------3--------------2--------2--------------2--------2-----------
D|--------4--------4-----4--------4--------4-----4--------0--------0-----0--------0--------0-----0--
A|-----------6--------6--------------6--------6--------------4--------4--------------4--------4-----
E|--------------------------------------------------------------------------------------------------

Stave 23:

E|--------------0--------------------0--------------------------0--------------------0--------------
B|--8-----6--------6-----8-----6--------6-----6-----4-----2--------2-----4-----2--------2-----2-----
G|-----5-----5--------5-----5-----5--------5-----5-----1-----1--------1-----1-----1--------1-----1--
D|--------------------------------------------------------------------------------------------------
A|--------------------------------------------------------------------------------------------------
E|--------------------------------------------------------------------------------------------------

Stave 24:

E|------------------------------------------------------------------------------------------------------
B|------------------------------------------------------------------------------------------------------
G|---------------0---------------------10---------------------------0--------------------9--------------
D|---------7--------7-----7---------7------7------------------7--------7-----7--------7-----7-----------
A|------8-----8--------8---------8------------8------8-----8-----8--------8--------8-----------8-----8--
E|--10-----------------------10------------------10-----9-----------------------9-----------------9-----

Stave 25:

E|--------------------------------------------------------------------------
B|--------------------------------------------------------------------------
G|--------------7--------------------6--------------7--------------------0--
D|--------7--------7-----7--------7-----------5--------5-----5--------4-----
A|-----9-----9--------9--------9-----------9-----9--------9--------7--------
E|--0-----------------------0-----------0-----------------------0-----------

Stave 26:

E|--------------3-----------------------2-----------------------0-----------------------0-----------
B|-----------5-----5-----------------5-----5-----------------0-----0-----------------0-----0--------
G|--------4-----------4-----------4-----------4-----------5-----------5-----------5-----------5-----
D|-----2-----------------2-----2-----------------2-----3-----------------3-----3-----------------3--
A|--0-----------------------0-----------------------0-----------------------0-----------------------
E|--------------------------------------------------------------------------------------------------

Stave 27:

E|--------------------------------------------------------------------------------------------
B|--------0--------0--------0-----0-----0-----------0--------0--------0--------0-----0-----0--
G|-----5--------5--------5-----5-----5-----5-----5--------5--------5--------5-----5-----5-----
D|--2--------4--------5-----------------------2--------4--------0-----------------------------
A|-----------------------------------------------------------------------3--------------------
E|--------------------------------------------------------------------------------------------

Stave 28:

E|-----------------------------------------------------------------------------0--
B|--------------------------------------0-----------------------------------------
G|-----------0-----------------5--------------------0-----------------5-----------
D|--------3-----3-----------3-----3--------------3-----3-----------3-----3--------
A|-----7-----------7-----7-----------7--------7-----------7-----7-----------7-----
E|--0-----------------0--------------------0-----------------0--------------------

Stave 29:

E|--------------------------------------------------
B|-----------0-----------0-----------0--------------
G|--6-----------6-----------6-----------6-----------
D|-----6-----------6-----------6-----------6-----6--
A|--------0-----------0-----------0-----------0-----
E|--------------------------------------------------

Stave 30:

E|-----------------------------
B|-----------------------------
G|--0--------------1--------0--
D|--2--2--2--2--2--3--2--5--1--
A|--2--2--2--2--2--3--4--7--3--
E|--0--1--0--1--0--1--4--7--3--

http://www.guitartabcreator.com
Guitar Tab Creator is intended to store guitar tab created through the tool. It currently does not support in-line text editing. Any text you place in here will be lost. If you need to comment on your tab, please use the "Tab Notes" section located below.