spicy pulled pork

01234567891011121314151617181920212223
E
B
G
D
A
E
B
0 1 2 3 4 5 6 7 8 9 10 11 12 13 14 15 16 17 18 19 20 21 22 23
(/) Slide Up  (\) Slide Down  (h) Hammer On  (p) Pull Off  (b) Bend (r) Release (v) Vibrato

Stave 1:

E|-----------------------------------
B|--2--3--0-----0--3-----3-----7--8--
G|--2--2--2-----0--0-----4-----7--7--
D|--2--2--2-----0--0-----4-----7--7--
A|--0--0--0--------------2-----5--5--
E|--------------3--3-----------------

Stave 2:

E|----------------------------------------------------------
B|--------2-----------2h3-----3-----3--2--0-----------3--0--
G|--------2-----------2----------2--2--2--0-----0-----0--0--
D|--------2--------2----------------2--2--0--------0--------
A|--0-----------0-------------------------------------------
E|-------------------------------------------3--------------

Stave 3:

E|----------------------------------------------------------
B|--------------2--------2h3--3-----3--2--0-----------3--0--
G|--------------2--------2----2-----2--2--0-----0-----0--0--
D|-----2-----2-----------2----2-----2--2--0-----------------
A|--0-----0-----------0----------0--------------------------
E|-------------------------------------------3-----3--------

Stave 4:

E|-------------------------------------------------------------------------------------------------------
B|--------------3----------7--------8p7-------------------3--2-------------3--0--------------3--0--------
G|--------------4----------7-------------7----------2-----2--2p0-----0-----0--0--0-----0-----0--0-----0--
D|-----4-----4-------------7-----7----------7\0--------2----------------0--------------------------------
A|--2-----2-----------2/5-----5------------------0-------------------------------------------------------
E|----------------------------------------------------------------3-----------------3-----3--------3-----

Stave 5:

E|----------------------------------------------------------------------------------------------------
B|--2--2-----2-----2--2-----2-----3p2p0--2p0----------0h2p0-----------------3-------------------------
G|--2--2-----2-----2--2-----2-----------------2--0h2---------0-----0-----------0----------------------
D|--2--2-----2-----2--2-----2-----------------------------------------0-----------0-----4-----4h5--0--
A|--0-----------0--------------0----------------------------------------------------------------------
E|--------------------------------------------------------------3--------3-----------3----------------

Stave 6:

E|--------------------------------------------------------------------------------------------------------
B|--2--2-----2-----2--2-----2-----3p2p0--2p0----------0h2h3----------8-----8-----8-----7--7--7-----7/8\3--
G|--2--2-----2-----2--2-----2-----------------2--0h2---------2-------7-----7-----7------------------------
D|--2--2-----2-----2--2-----2-----------------------------------2/5-----------5--------4--4-----4--4-5----
A|--0-----------0--------------0--------------------------------------------------------------------------
E|--------------------------------------------------------------------------------------------------------

							http://www.guitartabcreator.com
Chords

Tab Notes
capo6
Instruments
{"strings":[[[".",".",".","_",".",".","_",".","_",".","."],[2,3,0,"_",0,3,"_",3,"_",7,8],[2,2,2,"_",0,0,"_",4,"_",7,7],[2,2,2,"_",0,0,"_",4,"_",7,7],[0,0,0,"_",".",".","_",2,"_",5,5],[".",".",".","_",3,3,"_",".","_",".","."]],[[".","_",".","_",".",".",".",".",".","_",".",".",".",".",".",".",".",".",".","."],[".","_",2,"_",".",".",2,"h",3,"_",3,".",3,2,0,".",".",".",3,0],[".","_",2,"_",".",".",2,".",".","_",".",2,2,2,0,".",0,".",0,0],[".","_",2,"_",".",2,".",".",".","_",".",".",2,2,0,".",".",0,".","."],[0,"_",".","_",0,".",".",".",".","_",".",".",".",".",".",".",".",".",".","."],[".","_",".","_",".",".",".",".",".","_",".",".",".",".",".",3,".",".",".","."]],[[".",".",".",".",".","_",".",".",".",".",".",".",".",".",".",".",".",".",".","."],[".",".",".",".",2,"_",".",2,"h",3,3,".",3,2,0,".",".",".",3,0],[".",".",".",".",2,"_",".",2,".",".",2,".",2,2,0,".",0,".",0,0],[".",2,".",2,".","_",".",2,".",".",2,".",2,2,0,".",".",".",".","."],[0,".",0,".",".","_",0,".",".",".",".",0,".",".",".",".",".",".",".","."],[".",".",".",".",".","_",".",".",".",".",".",".",".",".",".",3,".",3,".","."]],[[".",".",".",".",".","_",".",".",".",".",".",".",".",".",".",".",".",".",".",".",".",".",".",".",".",".",".",".",".",".",".",".",".",".",".",".",".",".","."],[".",".",".",".",3,"_",".",".",".",7,".",".",8,"p",7,".",".",".",".",".",".",".",3,2,".",".",".",".",".",3,0,".",".",".",".",3,0,".","."],[".",".",".",".",4,"_",".",".",".",7,".",".",".",".",".",7,".",".",".",".",2,".",2,2,"p",0,".",0,".",0,0,0,".",0,".",0,0,".",0],[".",4,".",4,".","_",".",".",".",7,".",7,".",".",".",".",7,"\\",0,".",".",2,".",".",".",".",".",".",0,".",".",".",".",".",".",".",".",".","."],[2,".",2,".",".","_",2,"/",5,".",5,".",".",".",".",".",".",".",".",0,".",".",".",".",".",".",".",".",".",".",".",".",".",".",".",".",".",".","."],[".",".",".",".",".","_",".",".",".",".",".",".",".",".",".",".",".",".",".",".",".",".",".",".",".",".",3,".",".",".",".",".",3,".",3,".",".",3,"."]],[[".",".","_",".",".",".",".","_",".",".",".",".",".",".",".",".",".",".",".",".",".",".",".",".",".",".",".",".",".",".",".",".",".",".",".",".",".","_",".",".",".","."],[2,2,"_",2,".",2,2,"_",2,".",3,"p",2,"p",0,2,"p",0,".",".",".",".",0,"h",2,"p",0,".",".",".",".",".",3,".",".",".",".","_",".",".",".","."],[2,2,"_",2,".",2,2,"_",2,".",".",".",".",".",".",".",".",".",2,0,"h",2,".",".",".",".",".",0,".",0,".",".",".",0,".",".",".","_",".",".",".","."],[2,2,"_",2,".",2,2,"_",2,".",".",".",".",".",".",".",".",".",".",".",".",".",".",".",".",".",".",".",".",".",0,".",".",".",0,".",4,"_",4,"h",5,0],[0,".","_",".",0,".",".","_",".",0,".",".",".",".",".",".",".",".",".",".",".",".",".",".",".",".",".",".",".",".",".",".",".",".",".",".",".","_",".",".",".","."],[".",".","_",".",".",".",".","_",".",".",".",".",".",".",".",".",".",".",".",".",".",".",".",".",".",".",".",".",3,".",".",3,".",".",".",3,".","_",".",".",".","."]],[[".",".","_",".",".",".",".","_",".",".",".",".",".",".",".",".",".",".",".",".",".",".",".",".",".",".",".",".",".",".",".",".","_",".",".",".","_",".",".",".",".",".",".",".",".","."],[2,2,"_",2,".",2,2,"_",2,".",3,"p",2,"p",0,2,"p",0,".",".",".",".",0,"h",2,"h",3,".",".",".",".",8,"_",8,".",8,"_",7,7,7,".",7,"/",8,"\\",3],[2,2,"_",2,".",2,2,"_",2,".",".",".",".",".",".",".",".",".",2,0,"h",2,".",".",".",".",".",2,".",".",".",7,"_",7,".",7,"_",".",".",".",".",".",".",".",".","."],[2,2,"_",2,".",2,2,"_",2,".",".",".",".",".",".",".",".",".",".",".",".",".",".",".",".",".",".",".",2,"/",5,".","_",".",5,".","_",4,4,".",4,4,".",5,".","."],[0,".","_",".",0,".",".","_",".",0,".",".",".",".",".",".",".",".",".",".",".",".",".",".",".",".",".",".",".",".",".",".","_",".",".",".","_",".",".",".",".",".",".",".",".","."],[".",".","_",".",".",".",".","_",".",".",".",".",".",".",".",".",".",".",".",".",".",".",".",".",".",".",".",".",".",".",".",".","_",".",".",".","_",".",".",".",".",".",".",".",".","."]]],"numberofstrings":6,"notes":["E","B","G","D","A","E","B"],"capo":0,"stringnotes":["E4","B3","G3","D3","A2","E2"],"comments":["Stave 1:","Stave 2:","Stave 3:","Stave 4:","Stave 5:","Stave 6:"],"timing":[["W","W","W","W","W","W",null,"W",null,"W","W"],["W","W","W",null,"W","W","W","W","W",null,"W","W","W","W","W","W","W","W","W","W"],["W","W","H","H","W",null,"W","W",null,"W","W","W","W","W","W","W","W","W","W","W"],["W","W","W","W","W","W","W",null,"W","W","W","W","W",null,"W","W","W",null,"W","W","W","W","W","W",null,"W","W","W","W","W","W","W","W","W","W","W","W","W","W"],["W","W",null,"W","W","W","W",null,"W","W","W",null,"W",null,"W","W",null,"W","W","W",null,"W","W","W","W","W","W","W","W","W","W","W","W","W","W","W","W","W","W","W","W","W"],["W","W",null,"W","W","W","W",null,"W","W","W",null,"W",null,"W","W",null,"W","W","W",null,"W","W",null,"W",null,"W","W","W",null,"W","W",null,"W","W","W",null,"W","W","W","W","W",null,"W",null,"W"]],"timingvisible":false,"tabcounter":46,"stave":5,"totalstaves":6,"instrument":"6guitar","selectedtuning":"6_standard","version":"13"}

Member for

1 month 4 weeks
Submitted by MortalCoil on Thu, 2020-11-26 08:33