Sound will begin in 5 seconds

Fire On The Mountain - Grateful Dead - Jerry's Solo, Studio Version

01234567891011121314151617181920212223
E
B
G
D
A
E
B
0 1 2 3 4 5 6 7 8 9 10 11 12 13 14 15 16 17 18 19 20 21 22 23
Song Science #1: How Pros Use 6 Chords to Write Hit Songs
(/) Slide Up  (\) Slide Down  (h) Hammer On  (p) Pull Off  (b) Bend (r) Release (v) Vibrato

Stave 1:

E|---------10/11--12--11--12/14--12h14p12\11h12p11--14---------14--------------------14---------------------
B|--10/12-----------------------------------------------16b18------16b18--13b15--12------13b15--12--14------
G|------------------------------------------------------------------------------------------------------13--
D|----------------------------------------------------------------------------------------------------------
A|----------------------------------------------------------------------------------------------------------
E|----------------------------------------------------------------------------------------------------------

Stave 2:

E|-----------------------------14--16------------------------------------------------------------------
B|--12h14p12h14p12--12--13b15----------13b15b13------13b15------14------13b15--13b15b13------13b15b13--
G|-----------------------------------------------12---------12------12-------------------12------------
D|-----------------------------------------------------------------------------------------------------
A|-----------------------------------------------------------------------------------------------------
E|-----------------------------------------------------------------------------------------------------

Stave 3:

E|----------------------------------------
B|--14--12--14------12--------------------
G|--------------13------13--11------------
D|------------------------------12\10--9--
A|----------------------------------------
E|----------------------------------------

http://www.guitartabcreator.com
Guitar Tab Creator is intended to store guitar tab created through the tool. It currently does not support in-line text editing. Any text you place in here will be lost. If you need to comment on your tab, please use the "Tab Notes" section located below.