Song 1

Chords

01234567891011121314151617181920212223
E
B
G
D
A
E
B
0 1 2 3 4 5 6 7 8 9 10 11 12 13 14 15 16 17 18 19 20 21 22 23
Capo Fret 2

Stave 1:

E|--------------------------------------
B|--8-----7-----3--5-----5--0-----------
G|--------------------------------------
D|--------------------------------------
A|--7-----5-----2--3-----3--------------
E|--------------------------3-----------

Stave 2:

E|--------------------------------------------0--1--
B|--8-----7-----3--5-----5--0-----0--3--1-----1--0--
G|--------------------------------------------0--0--
D|--------------------------------------2-----2--0--
A|--7-----5-----2--3-----3-----------2--3-----3--2--
E|--------------------------3-----3-----------x--3--

Stave 3:

E|-----------------------------
B|--8-----7-----3--5-----5--0--
G|-----------------------------
D|-----------------------------
A|--7-----5-----2--3-----3-----
E|--------------------------3--

Stave 4:

E|------------------------------0-----1--
B|--8-----7-----3--5--------14--1-----0--
G|------------------------------0-----0--
D|------------------------------2-----0--
A|--7-----5-----2--3--------12--3-----2--
E|------------------------------x-----3--
Instruments
{"strings":[[[],[],[],[],[],[]]],"numberofstrings":6,"notes":["E","B","G","D","A","E","B"],"capo":0,"stringnotes":["E4","B3","G3","D3","A2","E2"],"comments":["Stave 1:"],"timing":[[]],"timingvisible":false,"tabcounter":0,"stave":0,"totalstaves":1,"instrument":"6guitar","selectedtuning":"6_standard","version":"13"}

Member for

2 weeks
Submitted by morgank on Thu, 2020-07-30 09:18