Sound will begin in 5 seconds

In a Sentimental Mood

Chords
01234567891011121314151617181920212223
E
B
G
D
A
E
B
0 1 2 3 4 5 6 7 8 9 10 11 12 13 14 15 16 17 18 19 20 21 22 23
(/) Slide Up  (\) Slide Down  (h) Hammer On  (p) Pull Off  (b) Bend (r) Release (v) Vibrato

Stave 1:

E|-------------------------------------------------
B|-------------------------------------------------
G|---------9--8-------------8--7-------------7--6--
D|---------9--9----------9-----9----------9-----5--
A|-----10-----10-----10--------10-----10--------7--
E|--0---------0---0------------0---0------------0--

Stave 2:

E|--------------------------------------------
B|--------5-----------5-----------5-----5--7--
G|--------5--------5-----------5--------5--8--
D|-----7-----7--6--------6--5--------5--4--7--
A|--0-----------------------------------0-----
E|-----------------------------------------7--

Stave 3:

E|--------------------------------7--------------5--
B|-----------------------------7-----6--5--5--4--3--
G|-----9---11--12-----------7--------7--5--5--5--4--
D|-----9-----------------7-----------6--6--5--4--4--
A|-----10----------------------------7--7-----5-----
E|--0--0--------------7--------------------5-----3--

Stave 4:

E|---------12--12----------------
B|-------------------------------
G|-----12--12--14h15p14--12------
D|-----14--------------------14--
A|-------------------------------
E|--0----------------------------

Stave 5:

E|--4-----
B|--4--6--
G|--5--7--
D|--6--6--
A|--------
E|--6--6--

Stave 6:

E|--------------------------------------
B|--------4-----------4-----4--------3--
G|--------3-----------3-----1-----1-----
D|-----5-----------5--------3-----------
A|--6--------5--3--------------1--------
E|-----------------------1--------------

http://www.guitartabcreator.com
Guitar Tab Creator is intended to store guitar tab created through the tool. It currently does not support in-line text editing. Any text you place in here will be lost. If you need to comment on your tab, please use the "Tab Notes" section located below.