Scale exercise

Chords

01234567891011121314151617181920212223
E
B
G
D
A
E
B
0 1 2 3 4 5 6 7 8 9 10 11 12 13 14 15 16 17 18 19 20 21 22 23
(/) Slide Up  (\) Slide Down  (h) Hammer On  (p) Pull Off  (b) Bend (r) Release (v) Vibrato

Stave 1:

E|-----------------------------------------------
B|-----------------------------------------------
G|--------------------1--2--1--------------------
D|--------------2--4-----------4--2--------------
A|-----2--4--5-----------------------5--4--2-----
E|--5-----------------------------------------5--

Stave 2:

E|-----------------------------------------------
B|-----------------------------------------------
G|-----------------------------------------------
D|-----------------4--6--7--6--4-----------------
A|--------4--5--7-----------------7--5--4--------
E|--5--7-----------------------------------7--5--

Stave 3:

E|------------------------------------------------
B|-----------------7--9--10--9--7-----------------
G|--------6--7--9------------------9--7--6--------
D|--7--9------------------------------------9--7--
A|------------------------------------------------
E|------------------------------------------------

Stave 4:

E|--------------------------------------------------------
B|------------------------9--10--9------------------------
G|-----------------9--11------------11--9-----------------
D|------9--11--12--------------------------12--11--9------
A|--12------------------------------------------------12--
E|--------------------------------------------------------

							http://www.guitartabcreator.com
Instruments
{"strings":[[[".",".",".",".",".",".",".",".",".",".",".",".",".",".","."],[".",".",".",".",".",".",".",".",".",".",".",".",".",".","."],[".",".",".",".",".",".",1,2,1,".",".",".",".",".","."],[".",".",".",".",2,4,".",".",".",4,2,".",".",".","."],[".",2,4,5,".",".",".",".",".",".",".",5,4,2,"."],[5,".",".",".",".",".",".",".",".",".",".",".",".",".",5]],[[".",".",".",".",".",".",".",".",".",".",".",".",".",".","."],[".",".",".",".",".",".",".",".",".",".",".",".",".",".","."],[".",".",".",".",".",".",".",".",".",".",".",".",".",".","."],[".",".",".",".",".",4,6,7,6,4,".",".",".",".","."],[".",".",4,5,7,".",".",".",".",".",7,5,4,".","."],[5,7,".",".",".",".",".",".",".",".",".",".",".",7,5]],[[".",".",".",".",".",".",".",".",".",".",".",".",".",".","."],[".",".",".",".",".",7,9,10,9,7,".",".",".",".","."],[".",".",6,7,9,".",".",".",".",".",9,7,6,".","."],[7,9,".",".",".",".",".",".",".",".",".",".",".",9,7],[".",".",".",".",".",".",".",".",".",".",".",".",".",".","."],[".",".",".",".",".",".",".",".",".",".",".",".",".",".","."]],[[".",".",".",".",".",".",".",".",".",".",".",".",".",".","."],[".",".",".",".",".",".",9,10,9,".",".",".",".",".","."],[".",".",".",".",9,11,".",".",".",11,9,".",".",".","."],[".",9,11,12,".",".",".",".",".",".",".",12,11,9,"."],[12,".",".",".",".",".",".",".",".",".",".",".",".",".",12],[".",".",".",".",".",".",".",".",".",".",".",".",".",".","."]]],"numberofstrings":6,"notes":["E","B","G","D","A","E","B"],"capo":0,"stringnotes":["E4","B3","G3","D3","A2","E2"],"comments":["Stave 1:","Stave 2:","Stave 3:","Stave 4:"],"timing":[[null,null,null,null,null,null,null,null,null,null,null,null,null,null,null],[null,null,null,null,null,null,null,null,null,null,null,null,null,null,null],[null,null,null,null,null,null,null,null,null,null,null,null,null,null,null],[null,null,null,null,null,null,null,null,null,null,null,null,null,null,null]],"timingvisible":false,"tabcounter":15,"stave":3,"totalstaves":4,"instrument":"6guitar","selectedtuning":"6_standard","version":"13"}

Member for

1 week 5 days
Submitted by Moodyz on Tue, 2020-06-30 06:23