Sound will begin in 5 seconds

Our Song

Chords
01234567891011121314151617181920212223
E
B
G
D
A
E
B
0 1 2 3 4 5 6 7 8 9 10 11 12 13 14 15 16 17 18 19 20 21 22 23
(/) Slide Up  (\) Slide Down  (h) Hammer On  (p) Pull Off  (b) Bend (r) Release (v) Vibrato

(W|WW) Whole (H|HH) Half (Q|QQ) Quarter (E|EE) 8th (S|SS) 16th (T|TT) 32nd (X|XX) 64th

Intro + Verse - Repeat Phrase x5
t: E EE E EE E EE E EE E EE E EE E EE E EE E EE E EE E EE E EE E EE E EE E EE E EE
E|------------------------------------------------------------------------------------------------------------------
B|------------------------------------------------------------------------------------------------------------------
G|------------------------------------------------------------------------------------------------------------------
D|-----10-----10-----10-----10-----10-----10-----10-----10-----10-----10-----10-----10-----10-----10-----10-----10--
A|--8------8------8------8------0------0------0------0--------------------------------------------------------------
E|----------------------------------------------------------8------8------8------8------8------8------8------8------

Pre-Chorus Repeat phrase x4 PM
t: EE EE EE EE EE EE EE EE EE EE EE EE EE EE EE EE EE EE EE EE EE EE EE EE EE EE EE EE EE EE EE EE
E|-------------------------------------------------------------------------------------------------------------------------------------
B|-------------------------------------------------------------------------------------------------------------------------------------
G|-------------------------------------------------------------------------------------------------------------------------------------
D|--10--10--10--10--10--10--10--10--10--10--10--10--10--10--10--10--10--10--10--10--10--10--10--10--10--10--10--10--10--10--10--10-----
A|--8---8---8---8---8---8---8---8---0---0---0---0---0---0---0---0----------------------------------------------------------------------
E|------------------------------------------------------------------8---8---8---8---8---8---8---8---8---8---8---8---8---8---8---8------

Chorus Repeat x4
t: EE E EE E EE E E EE E EE E EE E E EE E EE E EE E E EE EE E EE E E E
E|-----------------------------------------------------------------------------------------------------
B|-----------------------------------------------------------------------------------------------------
G|------------12---------9------------12---------9-----------------------------------------------------
D|-----10------------10--------10------------10---------------12---------9---------12---------9-----6--
A|---------8------8---------0------0------0------------10------------10--------10---------10-----------
E|--------------------------------------------------8------8------8---------8----------8---------8-----

http://www.guitartabcreator.com
Guitar Tab Creator is intended to store guitar tab created through the tool. It currently does not support in-line text editing. Any text you place in here will be lost. If you need to comment on your tab, please use the "Tab Notes" section located below.