Sound will begin in 5 seconds

Quite Easy Song Solo

01234567891011121314151617181920212223
E
B
G
D
A
E
B
0 1 2 3 4 5 6 7 8 9 10 11 12 13 14 15 16 17 18 19 20 21 22 23
(/) Slide Up  (\) Slide Down  (h) Hammer On  (p) Pull Off  (b) Bend (r) Release (v) Vibrato

Stave 1:

E|-------------------------------------------------16h19h16-----------------------------18--
B|--------0--11--12--0--19------19b21----------17------------17------17/19----------19------
G|-----9--------------------16-------------16--------------------16-------------18----------
D|-------------------------------------18-----------------------------------20--------------
A|------------------------------------------------------------------------------------------
E|--0---------------------------------------------------------------------------------------

Stave 2:

E|--19h16h12--19h16h12--19h16h12--19h16h12--21h18h14--21h18h14--21h18h14--21h18h14--------------16h19h16--
B|------------------------------------------------------------------------------------------17------------
G|--------------------------------------------------------------------------------------16----------------
D|----------------------------------------------------------------------------------18--------------------
A|--------------------------------------------------------------------------------------------------------
E|--------------------------------------------------------------------------------------------------------

Stave 3:

E|-----------------------------18h21h18--6--4--0--7--6--0--9--7--0--11--9--0--12--11--0--14--12--0--
B|--17------17/19----------19-----------------------------------------------------------------------
G|------16-------------18---------------------------------------------------------------------------
D|-----------------20-------------------------------------------------------------------------------
A|--------------------------------------------------------------------------------------------------
E|--------------------------------------------------------------------------------------------------

Stave 4:

E|--19--16--------------------------------------16--19--16----------------------
B|----------17------------------------------17--------------17--------------17--
G|--------------16--13--16--15--16--13--16----------------------16--13--16------
D|------------------------------------------------------------------------------
A|------------------------------------------------------------------------------
E|------------------------------------------------------------------------------

Stave 5:

E|--16--18--19--16--17--18--------------------------------------
B|--------------------------14--15--16--17--15--16--17--18--19--
G|--------------------------------------------------------------
D|--------------------------------------------------------------
A|--------------------------------------------------------------
E|--------------------------------------------------------------

Stave 6:

E|-------------------------------------------------------------------------------
B|----------------------------12--12--12--12b12b12--10b11------10---------10b11--
G|--------------9--9--10--11-------------------------------11------11--9---------
D|--7--7--8--9-------------------------------------------------------------------
A|-------------------------------------------------------------------------------
E|-------------------------------------------------------------------------------

Stave 7:

E|------------------19--20--21-----------------------------------------------------------
B|----------17------------------17b19b17b21b17-------------------------------------------
G|------16--------------------------------------15b16b15------------------14b15----------
D|--16----------16----------------------------------------16--16--14--16---------14--16--
A|---------------------------------------------------------------------------------------
E|---------------------------------------------------------------------------------------

Stave 8:

E|--------------------------------------------------14---------17---------
B|--10--11--12--13--14--------14---------17------------------------17b19--
G|----------------------9/11------11/14------13/14------14/16-------------
D|------------------------------------------------------------------------
A|------------------------------------------------------------------------
E|------------------------------------------------------------------------

Stave 9:

E|-------------------------------------------14------13-------------------------------------------
B|-----------------------------------------------------------14-------------14--------------------
G|--8--6--6--8------------------------11/13------13------13------13-------------------------------
D|-------------------------------------------------------------------13b15------14b15--16--14b15--
A|--------------6--4--6--4/6\4--4--4--------------------------------------------------------------
E|------------------------------------------------------------------------------------------------

Stave 10:

E|----------------------------------------13------14------16---------------------14------------------
B|----------------------------------------------------------------16b18------------------------------
G|--------------------------------------------13------13------13---------13--11----------11--14--13--
D|--11--11--13--11-------------------------------------------------------------------11--------------
A|------------------11--9--8--------8----------------------------------------------------------------
E|----------------------------9--7-----9-------------------------------------------------------------

Stave 11:

E|-------------------------------------------------
B|-------------------------------------------------
G|--11-----------------------------------10b11b10--
D|------11-------------------11------11------------
A|----------11--9--8-----11------11----------------
E|--------------------9----------------------------

Stave 12:

E|--21--19--18--------------19--18--16--------------18--16--14--------------16--14--13--------------
B|--------------21--19--18--------------19--18--16--------------18--16--14--------------16--14--12--
G|--------------------------------------------------------------------------------------------------
D|--------------------------------------------------------------------------------------------------
A|--------------------------------------------------------------------------------------------------
E|--------------------------------------------------------------------------------------------------

Stave 13:

E|--16----------14-----------------------------
B|------14--12------12--11--14-----------------
G|------------------------------9--10----------
D|-------------------------------------11--11--
A|---------------------------------------------
E|---------------------------------------------

Stave 14:

E|--12--11--9----------------------------------------------------------------
B|-------------12--11--9-----------------------------------------------------
G|------------------------11--10--9------------------------------------------
D|-----------------------------------11--10--9--11--10--9--------------------
A|---------------------------------------------------------11--10--9---------
E|--------------------------------------------------------------------12--9--

http://www.guitartabcreator.com
Guitar Tab Creator is intended to store guitar tab created through the tool. It currently does not support in-line text editing. Any text you place in here will be lost. If you need to comment on your tab, please use the "Tab Notes" section located below.