Sound will begin in 5 seconds

Guillotine

Chords
01234567891011121314151617181920212223
E
B
G
D
A
E
B
0 1 2 3 4 5 6 7 8 9 10 11 12 13 14 15 16 17 18 19 20 21 22 23
(/) Slide Up  (\) Slide Down  (h) Hammer On  (p) Pull Off  (b) Bend (r) Release (v) Vibrato

Stave 1:

E|-----0--------------------------------------------------0-----2--3--------------------------------------
B|-----------3--0-----0--3--5--3-----3--0-----0--0-----------------------0--3--5--3-----3--0-----0--0-----
G|--------------------------0--------------2--------------------2--0-----------0--------------2-----------
D|-----2-----0--------------------------------------------2-----0--5--------------------------------------
A|-----3-----5--2--------5-----------------0-----2--------3-----------------5-----------------0-----2-----
E|--------------------------------------------------------------------------------------------------------

Stave 2:

E|-----3--5--3--7--5--0-----3--5--3--7--5-----3--5--3--7--5--0-----3--5--10--7--5--3--0--------------------
B|--------------0--------------------0-----------------0-----------------_--0-----------------------------
G|-----0--2--0-----2--0-----0--2--0-----2-----0--2--0-----2--0-----0--2--7------2-----0--------------------
D|--------------------2-----------------0--------0-----------2-----------_-----------2--------------------
A|-----------------------------------------------------------------------_--------------------------------
E|-----------------------------------------------------------------------_--------------------------------

http://www.guitartabcreator.com
Guitar Tab Creator is intended to store guitar tab created through the tool. It currently does not support in-line text editing. Any text you place in here will be lost. If you need to comment on your tab, please use the "Tab Notes" section located below.