The Allers - Pulse (Solo)

Chords

01234567891011121314151617181920212223
E
B
G
D
A
E
B
0 1 2 3 4 5 6 7 8 9 10 11 12 13 14 15 16 17 18 19 20 21 22 23
(/) Slide Up  (\) Slide Down  (h) Hammer On  (p) Pull Off  (b) Bend (r) Release (v) Vibrato

Stave 1:

E|----------------------------------------------------------------------
B|----------------------------------------------------------------------
G|--4/6--6--6--1--1--13--13--14--16--16--16p14--14p13--13--13\11--11\9--
D|----------------------------------------------------------------------
A|----------------------------------------------------------------------
E|----------------------------------------------------------------------

Stave 2:

E|-----------------------------------------------------------------------------
B|--------------------------------------17v--19v------17------19b21r19p17------
G|--4/6--6--6--1--1--13--13--14--16/18------------18------18---------------18--
D|-----------------------------------------------------------------------------
A|-----------------------------------------------------------------------------
E|-----------------------------------------------------------------------------

Stave 3:

E|---------------------------------------14------16------17------17p14------------------------------
B|-----------------------------------14------14------14------14---------17p14-----------------------
G|--4/6--6--6--1--1--13--13--14--16--------------------------------------------16--16/17\16p14------
D|----------------------------------------------------------------------------------------------16--
A|--------------------------------------------------------------------------------------------------
E|--------------------------------------------------------------------------------------------------

Stave 4:

E|------------------------------14-------------------------------------19--------------------------------------
B|--------------------------14------17p14--17p14--17p14--17b19--17b19------17b19--17p14------------------------
G|--4/6--6--6--1--1--16b18---------------------------------------------------------------17\16--14--16p14------
D|---------------------------------------------------------------------------------------------------------17--
A|-------------------------------------------------------------------------------------------------------------
E|-------------------------------------------------------------------------------------------------------------

Stave 5:

E|--2--2------------2--2-------------2--2-----------------------2--2---------------------
B|--2--2------------2--2-------------2--2-----------------------2--2---------------------
G|--2--2------------2--2--2b3-----4--2--2-----------------------2--2-----------------14--
D|--4--4------------4--4-------4-----4--4-----------------------4--4---------14----------
A|--------2h4p2----------------------------2h4--2h4--2h4--------------14/16------16------
E|--2--2---------5--2--2-------------2--2-----------------5--2--2--2---------------------

Stave 6:

E|--2--2---------------2--2-----------2--2--5--2------------------------------------
B|--2--2---------------2--2--2-----2--2--2--5--2--4---------------------------------
G|--2--2---------------2--2--2--4--2--2--2--------4--4/5\4--2-----2-----4b5r4p2-----
D|--4--4---------------4--4-----4-----4--4---------------------4-----4-----------4--
A|--------2h4p2---------------------------------------------------------------------
E|--2--2---------5--2--2--2-----------2--2------------------------------------------

							http://www.guitartabcreator.com
Instruments
{"strings":[[[".",".",".",".",".",".",".",".",".",".",".",".",".",".",".",".",".",".",".",".",".",".",".",".","."],[".",".",".",".",".",".",".",".",".",".",".",".",".",".",".",".",".",".",".",".",".",".",".",".","."],[4,"/",6,6,6,1,1,13,13,14,16,16,16,"p",14,14,"p",13,13,13,"\\",11,11,"\\",9],[".",".",".",".",".",".",".",".",".",".",".",".",".",".",".",".",".",".",".",".",".",".",".",".","."],[".",".",".",".",".",".",".",".",".",".",".",".",".",".",".",".",".",".",".",".",".",".",".",".","."],[".",".",".",".",".",".",".",".",".",".",".",".",".",".",".",".",".",".",".",".",".",".",".",".","."]],[[".",".",".",".",".",".",".",".",".",".",".",".",".",".",".",".",".",".",".",".",".",".",".",".",".",".",".","."],[".",".",".",".",".",".",".",".",".",".",".",".",".",17,"v",19,"v",".",17,".",19,"b",21,"r",19,"p",17,"."],[4,"/",6,6,6,1,1,13,13,14,16,"/",18,".",".",".",".",18,".",18,".",".",".",".",".",".",".",18],[".",".",".",".",".",".",".",".",".",".",".",".",".",".",".",".",".",".",".",".",".",".",".",".",".",".",".","."],[".",".",".",".",".",".",".",".",".",".",".",".",".",".",".",".",".",".",".",".",".",".",".",".",".",".",".","."],[".",".",".",".",".",".",".",".",".",".",".",".",".",".",".",".",".",".",".",".",".",".",".",".",".",".",".","."]],[[".",".",".",".",".",".",".",".",".",".",".",".",14,".",16,".",17,".",17,"p",14,".",".",".",".",".",".",".",".",".",".",".","."],[".",".",".",".",".",".",".",".",".",".",".",14,".",14,".",14,".",14,".",".",".",17,"p",14,".",".",".",".",".",".",".",".","."],[4,"/",6,6,6,1,1,13,13,14,16,".",".",".",".",".",".",".",".",".",".",".",".",".",16,16,"/",17,"\\",16,"p",14,"."],[".",".",".",".",".",".",".",".",".",".",".",".",".",".",".",".",".",".",".",".",".",".",".",".",".",".",".",".",".",".",".",".",16],[".",".",".",".",".",".",".",".",".",".",".",".",".",".",".",".",".",".",".",".",".",".",".",".",".",".",".",".",".",".",".",".","."],[".",".",".",".",".",".",".",".",".",".",".",".",".",".",".",".",".",".",".",".",".",".",".",".",".",".",".",".",".",".",".",".","."]],[[".",".",".",".",".",".",".",".",".",".",".",14,".",".",".",".",".",".",".",".",".",".",".",".",".",".",".",19,".",".",".",".",".",".",".",".",".",".",".",".",".","."],[".",".",".",".",".",".",".",".",".",".",14,".",17,"p",14,17,"p",14,17,"p",14,17,"b",19,17,"b",19,".",17,"b",19,17,"p",14,".",".",".",".",".",".",".","."],[4,"/",6,6,6,1,1,16,"b",18,".",".",".",".",".",".",".",".",".",".",".",".",".",".",".",".",".",".",".",".",".",".",".",".",17,"\\",16,14,16,"p",14,"."],[".",".",".",".",".",".",".",".",".",".",".",".",".",".",".",".",".",".",".",".",".",".",".",".",".",".",".",".",".",".",".",".",".",".",".",".",".",".",".",".",".",17],[".",".",".",".",".",".",".",".",".",".",".",".",".",".",".",".",".",".",".",".",".",".",".",".",".",".",".",".",".",".",".",".",".",".",".",".",".",".",".",".",".","."],[".",".",".",".",".",".",".",".",".",".",".",".",".",".",".",".",".",".",".",".",".",".",".",".",".",".",".",".",".",".",".",".",".",".",".",".",".",".",".",".",".","."]],[[2,2,".",".",".",".",".",".",2,2,".",".",".",".",".",2,2,".",".",".",".",".",".",".",".",".",".",".",2,2,".",".",".",".",".",".",2,2,".",".",".",".",".",".","."],[2,2,".",".",".",".",".",".",2,2,".",".",".",".",".",2,2,".",".",".",".",".",".",".",".",".",".",".",2,2,".",".",".",".",".",".",2,2,".",".",".",".",".",".","."],[2,2,".",".",".",".",".",".",2,2,2,"b",3,".",4,2,2,".",".",".",".",".",".",".",".",".",".",".",2,2,".",".",".",".",".",14,2,2,".",".",".",".",".",".","."],[4,4,".",".",".",".",".",".",4,4,".",".",".",4,".",4,4,".",".",".",".",".",".",".",".",".",".",".",4,4,".",".",".",14,".",".",4,4,".",".",".",".",".",".","."],[".",".",2,"h",4,"p",2,".",".",".",".",".",".",".",".",".",".",2,"h",4,2,"h",4,2,"h",4,".",".",".",".",14,"/",16,".",16,".",".",".",2,"h",4,"p",2,".","."],[2,2,".",".",".",".",".",5,2,2,".",".",".",".",".",2,2,".",".",".",".",".",".",".",".",".",5,2,2,2,".",".",".",".",".",".",2,2,".",".",".",".",".",5,2]],[[2,2,".",".",".",".",".",".",".",2,2,".",".",".",2,2,5,2,".",".",".",".",".",".",".",".",".",".",".",".",".",".",".",".",".","."],[2,2,".",".",".",".",".",".",".",2,2,2,".",2,2,2,5,2,4,".",".",".",".",".",".",".",".",".",".",".",".",".",".",".",".","."],[2,2,".",".",".",".",".",".",".",2,2,2,4,2,2,2,".",".",4,4,"/",5,"\\",4,2,".",2,".",4,"b",5,"r",4,"p",2,"."],[4,4,".",".",".",".",".",".",".",4,4,".",4,".",4,4,".",".",".",".",".",".",".",".",".",4,".",4,".",".",".",".",".",".",".",4],[".",".",2,"h",4,"p",2,".",".",".",".",".",".",".",".",".",".",".",".",".",".",".",".",".",".",".",".",".",".",".",".",".",".",".",".","."],[2,2,".",".",".",".",".",5,2,2,2,".",".",".",2,2,".",".",".",".",".",".",".",".",".",".",".",".",".",".",".",".",".",".",".","."]]],"numberofstrings":6,"notes":["E","B","G","D","A","E","B"],"capo":0,"stringnotes":["E4","B3","G3","D3","A2","E2"],"comments":["Stave 1:","Stave 2:","Stave 3:","Stave 4:","Stave 5:","Stave 6:"],"timing":[[null,null,null,null,null,null,null,null,null,null,"W","W","W",null,"W","W",null,"W","W","W",null,"W","W",null,"W"],["W",null,"W","W","W","W","W","W","W","W","W",null,"W","W",null,"W",null,"W","W","W","W",null,"W",null,"W",null,"W","W"],["W",null,"W","W","W","W","W","W","W","W","W","W","W","W","W","W","W","W","W",null,"W","W",null,"W","W","W",null,"W",null,"W",null,"W","W"],["W",null,"W","W","W","W","W","W",null,"W","W","W","W",null,"W","W",null,"W","W",null,"W","W",null,"W","W",null,"W","W","W",null,"W","W",null,"W","W",null,"W","W","W",null,"W","W"],["W","W","W",null,"W",null,"W","W","W","W","W",null,"W","W","W","W","W","W",null,"W","W",null,"W","W",null,"W","W","W","W","W","W","W","W","W","W","W","W","W","W",null,"W",null,"W","W","W"],["W","W","W",null,"W",null,"W","W","W","W","W","W","W","W","W","W","W","W","W","W",null,"W",null,"W","W","W","W","W","W",null,"W",null,"W",null,"W","W"]],"timingvisible":false,"tabcounter":36,"stave":5,"totalstaves":6,"instrument":"6guitar","selectedtuning":"6_standard","version":"13"}

Member for

1 year 3 months
Submitted by Mohamed Amine Jebari on Tue, 2020-09-15 13:51