Hold Your Fire

Chords

01234567891011121314151617181920212223
E
B
G
D
A
E
B
0 1 2 3 4 5 6 7 8 9 10 11 12 13 14 15 16 17 18 19 20 21 22 23
(/) Slide Up  (\) Slide Down  (h) Hammer On  (p) Pull Off  (b) Bend (r) Release (v) Vibrato

Opening groove

E|--------------------------------------------------
B|--------------------------------------------------
G|--------------------------------------------------
D|--------------------------------------------------
A|-----------1--1--1--3--3-----------5--5--5--3--3--
E|--3--3--3-----------------1--1--1-----------------

Final round leading to main riff

E|--------------------------------------------------
B|--------------------------------------------------
G|--------------------------------------------------
D|--------------------------------------------------
A|-----------1--1--1--3--3--------------------------
E|--3--3--3-----------------1--1--1--1--1--1--1--1--

Main Riff (Chorus)

E|--------------------------------------------------------------------------------------------------
B|--------------------------------------------------------------------------------------------------
G|--------------------------------------------------------------------------------------------------
D|-----------------------0-----------------------0--------------------------0-----------0-----------
A|-----------1-----3--1--------------1-----3--1--------------1-----3--1--3-----3--1--3-----3--1--3--
E|--3--3--3-----------------3--3--3-----------------3--3--3-----------------------------------------

Verse 

E|--------------------------------------------------
B|--------------------------------------------------
G|--------------------------------------------------
D|-----------------------0--------------------------
A|-----------------3--1-----1--1--1--1-----3--1--3--
E|--3--3--3--3--------------------------------------

Pre-Chorus

E|--------------------------------------------------
B|--------------------------------------------------
G|--------------------------------------------------
D|--------------------------------------------------
A|--5--5--5--5-----5--5--5--3--3--3--3--------------
E|-----------------------------------------1--1--1--

Bridge (nothing played on first beat, the groove has a slight stutter)

E|--------------------------------------------------
B|--------------------------------------------------
G|--------------------------------------------------
D|--x-----------------------------------------------
A|--x--5--5-----3--3-----1--1-----------------------
E|--x-----------------------------3--3-----1-----3--

Final tag of the bridge on the 4th time around

E|--------------------------------------------------
B|--------------------------------------------------
G|--------------------------------------------------
D|--x-----------------------------------------------
A|--x--------------------1--1-----------------------
E|--x--1--1-----3--3--------------3-----0--1--3-----

							http://www.guitartabcreator.com
Instruments
{"strings":[[[".",".",".",".",".",".",".",".",".",".",".",".",".",".",".","."],[".",".",".",".",".",".",".",".",".",".",".",".",".",".",".","."],[".",".",".",".",".",".",".",".",".",".",".",".",".",".",".","."],[".",".",".",".",".",".",".",".",".",".",".",".",".",".",".","."],[".",".",".",1,1,1,3,3,".",".",".",5,5,5,3,3],[3,3,3,".",".",".",".",".",1,1,1,".",".",".",".","."]],[[".",".",".",".",".",".",".",".",".",".",".",".",".",".",".","."],[".",".",".",".",".",".",".",".",".",".",".",".",".",".",".","."],[".",".",".",".",".",".",".",".",".",".",".",".",".",".",".","."],[".",".",".",".",".",".",".",".",".",".",".",".",".",".",".","."],[".",".",".",1,1,1,3,3,".",".",".",".",".",".",".","."],[3,3,3,".",".",".",".",".",1,1,1,1,1,1,1,1]],[[".",".",".",".",".",".",".",".",".",".",".",".",".",".",".",".",".",".",".",".",".",".",".",".",".",".",".",".",".",".",".","."],[".",".",".",".",".",".",".",".",".",".",".",".",".",".",".",".",".",".",".",".",".",".",".",".",".",".",".",".",".",".",".","."],[".",".",".",".",".",".",".",".",".",".",".",".",".",".",".",".",".",".",".",".",".",".",".",".",".",".",".",".",".",".",".","."],[".",".",".",".",".",".",".",0,".",".",".",".",".",".",".",0,".",".",".",".",".",".",".",".",0,".",".",".",0,".",".","."],[".",".",".",1,".",3,1,".",".",".",".",1,".",3,1,".",".",".",".",1,".",3,1,3,".",3,1,3,".",3,1,3],[3,3,3,".",".",".",".",".",3,3,3,".",".",".",".",".",3,3,3,".",".",".",".",".",".",".",".",".",".",".",".","."]],[[".",".",".",".",".",".",".",".",".",".",".",".",".",".",".","."],[".",".",".",".",".",".",".",".",".",".",".",".",".",".",".","."],[".",".",".",".",".",".",".",".",".",".",".",".",".",".",".","."],[".",".",".",".",".",".",".",0,".",".",".",".",".",".",".","."],[".",".",".",".",".",3,1,".",1,1,1,1,".",3,1,3],[3,3,3,3,".",".",".",".",".",".",".",".",".",".",".","."]],[[".",".",".",".",".",".",".",".",".",".",".",".",".",".",".","."],[".",".",".",".",".",".",".",".",".",".",".",".",".",".",".","."],[".",".",".",".",".",".",".",".",".",".",".",".",".",".",".","."],[".",".",".",".",".",".",".",".",".",".",".",".",".",".",".","."],[5,5,5,5,".",5,5,5,3,3,3,3,".",".",".","."],[".",".",".",".",".",".",".",".",".",".",".",".",".",1,1,1]],[[".",".",".",".",".",".",".",".",".",".",".",".",".",".",".","."],[".",".",".",".",".",".",".",".",".",".",".",".",".",".",".","."],[".",".",".",".",".",".",".",".",".",".",".",".",".",".",".","."],["x",".",".",".",".",".",".",".",".",".",".",".",".",".",".","."],["x",5,5,".",3,3,".",1,1,".",".",".",".",".",".","."],["x",".",".",".",".",".",".",".",".",".",3,3,".",1,".",3]],[[".",".",".",".",".",".",".",".",".",".",".",".",".",".",".","."],[".",".",".",".",".",".",".",".",".",".",".",".",".",".",".","."],[".",".",".",".",".",".",".",".",".",".",".",".",".",".",".","."],["x",".",".",".",".",".",".",".",".",".",".",".",".",".",".","."],["x",".",".",".",".",".",".",1,1,".",".",".",".",".",".","."],["x",1,1,".",3,3,".",".",".",".",3,".",0,1,3,"."]]],"numberofstrings":6,"notes":["E","B","G","D","A","E","B"],"capo":0,"stringnotes":["E4","B3","G3","D3","A2","E2"],"comments":["Opening groove","Final round leading to main riff","Main Riff (Chorus)","Verse ","Pre-Chorus","Bridge (nothing played on first beat, the groove has a slight stutter)","Final tag of the bridge on the 4th time around"],"timing":[[null,"W","W","W","W","W","W","W","W","W","W","W","W","W","W",null,"W",null,"W"],[null,null,null,null,null,null,null,null,null,null,null,"W","W","W","W","W",null,"W"],[null,"W","W","W","W",null,"W","W","W",null,null,null,null,null,null,null,"W","W",null,null,null,null,null,null,"W","W","W","W","W","W","W","W","W"],[null,"W","W","W","W",null,"W","W","W","W","W","W","W",null,"W","W","W"],[null,"W","W","W","W",null,"W","W","W","W","W","W","W",null,"W","W","W"],[null,null,"W","W",null,"W","W",null,"W","W",null,"W","W",null,"W",null,"W"],[null,null,"W","W",null,"W","W",null,"W","W",null,"W","W",null,"W",null,"W"]],"timingvisible":false,"tabcounter":16,"stave":6,"totalstaves":7,"instrument":"6guitar","selectedtuning":"6_standard","version":"13"}

Member for

1 year 4 months
Submitted by modfic on Thu, 2020-07-30 10:00